#1
Studio version: http://www.youtube.com/watch?v=EWgz_drnAN0

Psychedelic bliss from Australia's Tame Impala. I've been finding it really difficult to tab because of all the fuzz they use on their guitars; the two parts tend to blend together within the mix and it's difficult to pick them apart. There's also an annoying lack of clear live videos to watch, although this one is decent:

http://www.youtube.com/watch?v=SY3ARyC26nM

I know the higher guitar part during the verse looks like this (or rather sounds, because he doesn't play it exactly like this):

e ---------------------------------------------
B 11---13---8---11-/13--11-/13--8---9
G --------------------------------------------
D --------------------------------------------
A 9----11---6----9--/11---9--/11--6---8
E --------------------------------------------

Can anyone please help me out?
Last edited by tombit at Sep 2, 2010,
#3
The main riff sounds like the following to me:


G:11/13-11/13-----10-11--13------
D:------------13-------------13--
A:-9/11-9/11------8--9---11------
E:------------11-------------11--


I'm far too lazy to do the rest.

Edit: The little intro on the studio version I've been listening to sounds like this:

G:-----------10---12-----
D:--9b11r9----9---11--------------
A:---------8--8---10----------
E:------------9---11-----------
Last edited by RU Experienced? at Sep 4, 2010,