#1
has anyone figured out this song off the new album on guitar yet? i learned some of it, but i can't figure out some of the chords. i'd rather leave it to someone better than me to tab it out, cause im not that good of a guitar player, lol. if you haven't heard it yet though, i'd suggest you listen to it, if you're a fan of the band. it's definitely the best song off the new album (in my opinion, of course). there's live versions all over youtube of it if you wanna check it out. anyway, if anyone could tab it out for me, i'd really appreciate it. thanks!
Last edited by Rattlehead138 at Sep 2, 2010,
#2
INTRO AND VERSE PATTERN:

e|------------------------------------------------------|
B|------------------------------------------------------|
G|----9----9----9----9----8-----8-----8-----8------|
D|----9----9----9----9----9-----9-----9-----9------|
A|-7----7----7----7----7----7-----7-----7----------|
E|------------------------------------------------------|

e|-------------------------------------------------------------------|
B|----10----10-----10-----9-----9-----9-----9-----9------------|
G|----9------9------9-------9-----9-----9-----9-----9------------|
D|-7-----7------7------7-----7-----7-----7-----7-----------------|
A|--------------------------------------------------------------------|
E|--------------------------------------------------------------------|


CHORUS:

e|--0-----0-----0------0-----------|
B|--0-----0-----0------0-----------|
G|--9-----8-----2------x-----------|(2)
D|--9-----9-----2------2-----------|
A|--7-----7-----0------2-----------|
E|-----------------------0-----------|

Verse, chorus (4x)


BRIDGE:

e|-----------0----0---------|--------------------------------------------0-----|
B|-----------0----0---------|--------------------------------------------0-----|
G|-----------9----8---(3x)-|-----------9-xx-9-xx-9-x-9-xx------9-----|
D|-4----7---9----9---------|--4---7---9-xx-9-xx-9-x-9-xx-...--9-----|
A|-4----7---7----6---------|--4---7---7-xx-7-xx-7-x-7-xx------7-----|
E|-2----5-------------------|--2---5---------------------------------------|


After the bridge, the chorus chords are played all the way to the end