#1
Not the song in the intro, listen to the backing track. It sounds awesome and my band wants to play it so yeah. If someone can tab it out that would be great. Thanks.
#4
intro:

e|--0------------------0--------------0-----------------------0------------------|
B|----3------------------2---------------------2--------------------------------|
G|------0------------------0-----------------------------------------------------|
D|--------2------------------2-------------2------------------------------------|
A|----------2------------------0-------------------------------------------------|
E|-------------0------------------------------------------------------------------|

e|---------------------------------------------------------------------------|
B|---------------------------------------------------------------------------|
G|---------------------------------------------------------------------------|
D|---------------------------5----------------------7-5----------------------|
A|---5h7-7-xxx-7xx-5------5h7-xxx--7-xx----------------------------|
E|---------------------------------------------------------------------------|


e|---------------------------------------------------------------------------|
B|---------------------------------------------------------------------------|
G|---------------------------------------------------------------------------|
D|---------------------------------------------------------------------------|
A|----------5h7-5----------------------------------------------------------|
E|---00--------------7-6-5-3-5-0-----------------------------------------|

e|---------------------------------------------------------------------------|
B|---------------------------------------------------------------------------|
G|---------------------------------------------------------------------------|
D|-----7-7------5-----7-7-------------------------------------------------|
A|-----7-7------5-----7-7-------------------------------------------------|
E|-----5-5------3-----5-5-------------------------------------------------|

e|-----0---------0--------------------------0---------0--------------------------|
B|-----0---------0--------------------------0---------3--------------------------|
G|-----8---------6-----3times------------1---------1---------------------------|
D|-----9---------7--------------------------2--------2---------------------------|
A|-----9---------7--------------------------2--------2---------------------------|
E|-----7---------5--------------------------0--------0---------------------------|


e|---------------------------------------------------------------------------|
B|---------------------------------------------------------------------------|
G|----2-2--------2-2-------------------------------------------------------|
D|----2-2--------2-2----------2-2-2------3times------------------------|
A|----0-0--3-4--------3-4----2-2-2---------------------------------------|
E|-------------------------------0-0-0---------------------------------------|

e|-----------------------------------------------------------------------------------------------|
B|-----------------------------------------------------------------------------------------------|
G|----2-2--------2-2-------------9-9-9-----7-7---------7-7--------7--7--7--7-----------|
D|----2-2--------2-2-------------9-9-9-----7-7---------7-7--------7--9--10-9-----------|
A|----0-0--3-4--------3-4-------7-7-7-----5-5---8-9-------8-9---------------------------|
E|-----------------------------------------------------------------------------------------------|

e|---------------------------------------------------------------------------|
B|-------------------------------------13-----------------------------------|
G|---9--10-11-12--13---14\-------13----------------------------------|
D|---------------------------------------------------------------------------|
A|---7--8---9---10--11--12\-------13-----------------------------------|
E|---------------------------------------------------------------------------|