#1
Could you guys post some videos/name some songs where they sweep across all 6 strings??
WHISKEY
TANGO
FOXTROT
#2
When Life Meant More
"Could everyone please stop sounding like everyone else that's trying to sound like meshuggah?"

-Emil Werstler

Quote by damian_91
Kurt Cobain, the best guitarist to ever live.

#3
Nevermore - "I, Voyager"
http://www.youtube.com/watch?v=NomBovF5gPk

he plays a 7 string, but you can still do the 6 string sweep. solo at around 2:45.
Quote by archerygenious
Jesus Christ since when is the Pit a ****ing courtroom...

Like melodic, black, death, symphonic, and/or avant-garde metal? Want to collaborate? Message me!
#5
The Word Alive does quite a bit of sweeping. Couldn't give you any songs off the top of my head though..

If you're good enough I guess you could YouTube Metaljonus and look for Metal Picking 101 or something. It sounds like it'll be a lesson but it's not.
#6
If you want to learn 6 string sweeps you can just play the same notes on the 6th string as you are playing on the 1st, after all they're the same.
#7
Dream Theater - Stream of Consciousness. Just a small part in the first solo, tuned to Eb:

|-16--12------------------12-16-|
|-------12--------------12------|
|---------13----------13--------|
|-----------14------14----------|
|-------------14--14------------|
|---------------12--------------|

|-------------17-21-17----------|
|-----------17--------17--------|
|---------18------------18------|
|-------19----------------19----|
|---------------------------19--|
|-19-17-----------------------17|
#8
Struggle for the freedom flag by Galneryus
      S   S S S S   S  S  S  S   S  S  S  S S S  S  
D#||---------------------13-10h-13-----------------|
A#||------------------11-----------11--------------|
F#||------------7s-10-----------------10s-7--------|
C#||----------8-----------------------------8------|
G#||--------8---------------------------------8----|
D#||--6h-10-------------------------------------10-|
 
 
  S   S  S  S S   S  S  S  S   S  S  S  S  S  S  S  
-----------------------12-15p-12-------------------|
--------------------13-----------13----------------|
--------------9s-12-----------------12s-9----------|
-----------10-----------------------------10-------|
--------10-----------------------------------10----|
--8h-12-----------------------------------------12-|
 
 
  S   S S S S   S  S  S  S   S  S  S  S S S  S  
---------------------13-10h-13-----------------|
------------------11-----------11--------------|
------------7s-10-----------------10s-7--------|
----------8-----------------------------8------|
--------8---------------------------------8----|
--6h-10-------------------------------------10-|
 
 
  S   S  S  S S   S  S  S  S   S  S  S  S  S  S  S   
-----------------------12-15p-12-------------------||
--------------------13-----------13----------------||
--------------9s-12-----------------12s-9----------||
-----------10-----------------------------10-------||
--------10-----------------------------------10----||
--8h-12-----------------------------------------12-||
#10
Serrana - Jason Becker
Quite a lot of Necrophagist
Quote by MoogleRancha

You sir, are a genius.

I salute you.

Quote by iwontwait
The bestowing of this thread on my life is yours. Thank you, Benjabenja.