#1
Ok so I've been playing the lead riff just before the solo like this:

e|-7-------10-9--------9--|--7--7-10-9-----12-9---|-7--7-10-9------12-9--|9------9-10-7---9
B|---7-10--------7-10----|----8----------10---------|---8----------10---------|---7-8----------7--

That riff sounds correct to me. I bought the tab book for that album and it has that part listed as:

e|-----10-----10-9----------------|-------------10-9-----12-9-|--------------10-9-----12-9--|
B|-12-----10------------10-12---|-12-----12--------10-------|--12-----12--------10--------|
G|--------------------11------------|-----12----------------------|------12-----------------------|

e|----------------------10------9-|
B|--------------10-12-----12----|
G|-11-12-11---------------------|

The riff listed in the tab book doesn't sound correct to me. Anyone know what the correct way to play it is? Are those tab books always correct? You can see their hands playing in the video but I can't quite tell cause it's too fast to see. Thanks for any insight.
#2
the book is wrong. and no they aren't

I write songs.
YOU SHOULD LISTEN TO THEM
Currently Requiring Crits:
none