#1
Ok I know the whole song besides for the two last chords in the verse. I have made up my own chords, but I know they dont really match. I looked up the tab for this song( I usually dont look at tabs because i play by ear) and I found out those last two chords people were having trouble with... I looked on the comments and those chords were all over the place. Some of them sound decent, but others sound like deaf people tabbed it.. So my point is, I'm taking a vote to see who has the most spot on chords because I want to learn how to play this song right. Please don't flame me and tell me to go look at the tab because that is not the point of this thread. Thanks
#2
this is 100% accurate


intro chords:

e|---4------0-------5-------4--4------5------------------|
B|---5------0-------5-------4--4------5------------------|
G|---4------1-------6-------6--5------6------------------|
D|---6------2-------7-------6--6------7------------------|
A|---4------2-------7-------6--6------7------------------|
E|-----------0-------5-------4--4------5-----------------|

e|--------0-------5-------4--4------5--------0----------|
B|--------0-------5-------4--4------5--------0----------|
G|--------1-------6-------6--5------6--------1----------|
D|--------2-------7-------6--6------7--------2----------|
A|--------2-------7-------6--6------7--------2----------|
E|--------0-------5-------4--4------5--------0----------|


e|--0-------0-----------0---------0-------------0--------0-------------------|
B|--2b3----2b3b2----0----0---------------0-----------0--------------------|
G|----------------------------2---------1h2--------------1--------------------|
D|---------------------------------------------------------2--------------------|
A|---------------------------------------------------------2--------------------|
E|---------------------------------------------------------0--------------------|


e|--0-------0-----------0-------0-------------0--------0-----0-------0-------|
B|--2b3----2b3b2----0----0-------------0-----------0------0------0-------|
G|----------------------------2-------1h2--------------1------2------4-------|
D|-------------------------------------------------------2------4------6--------|
A|-------------------------------------------------------2------4------7--------|
E|-------------------------------------------------------0------0------0--------|


verse:
e|--4-----------------------------0----------0-------0------0-------------0------0------0------|
B|--5-------4------2-----2------0----------0-------0------0-------------0------0------0------|
G|--4-------5------4-----1------2----------1-------2------4-------------1------2------4------|
D|--6-------6------3-----2------2----------2-------4------6-------------2------4------6------|
A|--4-------3------2-----1------0----------2-------4------7-------------2------4------7------|
E|--------------------------------------------0-------0------0-------------0------0------0------|


2nd verse:
e|---4------0-------5-------4--4------5------------------|
B|---5------0-------5-------4--4------5------------------|
G|---4------1-------6-------6--5------6------------------|
D|---6------2-------7-------6--6------7------------------|
A|---4------2-------7-------6--6------7------------------|
E|-----------0-------5-------4--4------5-----------------|

e|--------0-------5-------4--4------5--------0----------|
B|--------0-------5-------4--4------5--------0----------|
G|--------1-------6-------6--5------6--------1----------|
D|--------2-------7-------6--6------7--------2----------|
A|--------2-------7-------6--6------7--------2----------|
E|--------0-------5-------4--4------5--------0----------|
Last edited by crmrz at Sep 13, 2010,