#2
ohh man. i have the exact same problem with that solo. i don't understand most of the tabs for that 5 second part.
Quote by edge11
yeah im not at gc dude, i dont live there.


||=(|''''|''''|''''|''''|)>-----
#4
Well, I thought there are 2 guitars playing a different lick, so it is quite impossible to play that part on your own and make it sound like the record.
#6
Quote by Xnimez
Well, I thought there are 2 guitars playing a different lick, so it is quite impossible to play that part on your own and make it sound like the record.

This... but maybe if you get your delay set up perfect.....

i ripped these from a GP tab from the site. they sounds pretty good to my ears


Track 1
10 \
Q S S S S S S E T T S E
E||----------------------------------------------|
B||--12~----10---------------10----10S-(0)-------|
G||------------11S-9-7-9S-11---------------7-9b--|
D||----------------------------------------------|
A||----------------------------------------------|
E||----------------------------------------------|


S S S S S S S S S S S S S S S S E S S S S E Q E E
--7-----------------------------------|-----------------------------------|
----7-10---7--------------------------|------7---10p-7--------------------|
---------9---7-9---7------------------|--7~----7-------9br--7~----(7)--7--|
-----------------9-----7--------------|-----------------------------------|
---------------------9---9S-7----7S-9-|-----------------------------------|
------------------------------10------|-----------------------------------|


Q. E Q Q Q E E Q E E
----------------------|----------------------------||
------------7----8----|--7~-------11--12----14-----||
--9------9------------|----------------------------||
----------------------|----------------------------||
----------------------|----------------------------||
----------------------|----------------------------||

Track 2
H. E E S S S S S S S S S S S S S S S S
E||-----------------------|--10----9---7--------------------------|
B||------------------10b--|-----10---8---7-10---8-----------------|
G||-----------------------|-------------------9-----7-------------|
D||-----------------------|-----------------------9---7S-5-4-5S-7-|
A||-----------------------|---------------------------------------|
E||-----------------------|---------------------------------------|


E S S S S E Q E E Q. E Q Q
------7---12p-10------------------------|--------------------------|
--------7-------------------------------|--------------10----12----|
--7~-------------12br--11~----(11)--11--|--12------12--------------|
----------------------------------------|--------------------------|
----------------------------------------|--------------------------|
----------------------------------------|--------------------------|


Q E E Q E E
-----------------------------||
--11~-------14--15----17-----||
-----------------------------||
-----------------------------||
-----------------------------||
-----------------------------||
"I can see that we speak the wrong notes."

Warlock NJ Deluxe (haters gonna hate)
Crate EL-10G