#4
Yeah that was good although you forgot about one small thing. PSS. Potential Sweeping Speed.
#6
FF6 music ftw!
R.I.P. My Signature. Lost to us in the great Signature Massacre of 2014.

Quote by Master Foo
“A man who mistakes secrets for knowledge is like a man who, seeking light, hugs a candle so closely that he smothers it and burns his hand.”


Album.
Legion.
#7
XD Nice. I know people like this. o_o
Quote by SlayingDragons
Nah, I prefer to tune lower. My tunings usually go into weird Hebrew symbols.
#11
Thanks guys! I'm glad that my fully comprehensive guide has made you all better players.

Piszczel, what's Potential Sweeping Speed? Can't say I'm too familiar with that term...


Quote by Vendetta V
anybody know what he's playing at 0.30-0.37??

tabs


hmm also teh dude in the end.. haha-ah if i felt not this terrible id lmao


That's just a warm-up arpeggio exercise I do. Something like this. (I tabbed this out pretty quickly. Probably a few errors, but it's close enough.


E||--------------------------7-10-7-------|
B||--------7-8-7-----------7--------7-----|
G||------9-------9-------9------------9---|
D||----9-----------9---9----------------9-|
A||--7---------------7--------------------|
E||---------------------------------------|


--------------------------------------15-19-15----------|
-----------15-17-15----------------15----------15-------|
--------17----------17----------17----------------17----|
-----17----------------17----17----------------------17-|
--15----------------------15----------------------------|
--------------------------------------------------------|


--------------------------------------10-15-10----------|
-----------10-12-10----------------10----------10-------|
--------12----------12----------12----------------12----|
-----12----------------12----12----------------------12-|
--10----------------------10----------------------------|
--------------------------------------------------------|


--------------------------------------12-17-12----------|----||
-----------12-13-12----------------13----------13-------|----||
--------14----------14----------14----------------14----|----||
-----14----------------14----14----------------------14-|----||
--12----------------------12----------------------------|----||
--------------------------------------------------------|----||


By the way, I know about suspension of disbelief and all of that... but uhh... "teh dude at the end" is me... With a hat, sunglasses, and a fake mustache. Remember: The same actor in a movie with a mustache = different character.
In a different sense, I guess you could also say the dude is me about five years ago.

Glad you guys enjoyed!
Last edited by PJIII at Sep 20, 2010,
#12
I lold.... happy now?
Quote by MightyAl
A girl is a mythical creature, somewhat akin to a unicorn, or chimera.
They don't really exist, but it would be cool if they did.
#13
Quote by PJIII
Thanks guys! I'm glad that my fully comprehensive guide has made you all better players.

Piszczel, what's Potential Sweeping Speed? Can't say I'm too familiar with that term...


That's just a warm-up arpeggio exercise I do. Something like this. (I tabbed this out pretty quickly. Probably a few errors, but it's close enough.


E||--------------------------7-10-7-------|
B||--------7-8-7-----------7--------7-----|
G||------9-------9-------9------------9---|
D||----9-----------9---9----------------9-|
A||--7---------------7--------------------|
E||---------------------------------------|


--------------------------------------15-19-15----------|
-----------15-17-15----------------15----------15-------|
--------17----------17----------17----------------17----|
-----17----------------17----17----------------------17-|
--15----------------------15----------------------------|
--------------------------------------------------------|


--------------------------------------10-15-10----------|
-----------10-12-10----------------10----------10-------|
--------12----------12----------12----------------12----|
-----12----------------12----12----------------------12-|
--10----------------------10----------------------------|
--------------------------------------------------------|


--------------------------------------12-17-12----------|----||
-----------12-13-12----------------13----------13-------|----||
--------14----------14----------14----------------14----|----||
-----14----------------14----14----------------------14-|----||
--12----------------------12----------------------------|----||
--------------------------------------------------------|----||


By the way, I know about suspension of disbelief and all of that... but uhh... "teh dude at the end" is me... With a hat, sunglasses, and a fake mustache. Remember: The same actor in a movie with a mustache = different character.
In a different sense, I guess you could also say the dude is me about five years ago.

Glad you guys enjoyed!


thanx buddy... lol no offence about teh guy inthe end..we all have passed thru that phase... well somes are in that phase but... that's the whole life... but that was a nice gag

good job
#14
at first, i thought, "troll?" and then i saw it was a joke. i lol'd. "Then yould......... probably play this!"
Quote by pedromiles101
you're not gonna want to take a dump in a gross, off-colored, vintage toilet. you want something that is white and pearly; something that shines. something that you can put your cheeks against and say, "f*** yeah"
#15
Lol Potential Sweeping Speed is just my take on Batio's PPS - potential picking speed, which he talks about in the same vid where he mentiones giving you keys to the lamborghini