#1
So recently I've hit a dead end as far as my solo writing is concerned, so I'd like any of you to share some of your favorite licks, whether they're home-written or from a song.

Thanks guise.
#3
my licks are my chldren! i would never give them up
also i dont feel ike typing them out righjt now theyd probably be incorrect in my current state
let me try one out here
e-----------------------------------------
b-8p7---7h8h10------------------------
g-------9---------------------
its the only one i could think of rigt now
#4
This is from Dream Theater's The Best Of Times:


    T T  T  T  T T  S S  S S  T  T T  S S
e|----------------------------------------
B|----9-10-12p10p9-10p9------12p10p9------
G|-11-------------------11-9---------11-9-
D|----------------------------------------
A|----------------------------------------
E|----------------------------------------


It's in 3/4 time. Not too difficult but I like how it sounds.

T= sixteenth note triplet
S= sixteenth note
Quote by Geldin
Junior's usually at least a little terse, but he knows his stuff. I've always read his posts in a grouchy grandfather voice, a grouchy grandfather with a huge stiffy for alternate picking.
Besides that, he's right this time. As usual.
#5
This one I like to do a lot play it in in form (ie, legato, tapped, picked, etc), on any string.
Ex.

15p-12--17p12--t21p12--t22p12

And another tapping lick I just made up today which u can feel free to play on any string.

t15p11h12---t17p11h12---t18p11h12.


We should create a new thread like a lick of the day. I know that would help out people a lot!!!!!