#1
Hi guys I am new to playing guitar, anyway I have had some trouble reading the music on this site. I'm trying to read my favorite band - Brand New's song. It's called Logan to Government Center - v3 and it's right here: http://www.ultimate-guitar.com/tabs/b/brand_new/logan_to_government_center_ver3_tab.htm

I couldn't find these answers in the FAQs. What does this mean?

Intro
Q=90
A5 F#5 D5
4/4

What does Guitar I, II, and III mean and how do I know how long I should play each area for?

Verse: What would I play here and in what order?

Verse
A5 F#5
||-------------------------------------|
||o------------------------------------|
||-------------------------------------|
||-------7---9--7------------6-9-7-6-9-|
||o---7----7------9--5---5-------------|
||--7------------------4---------------|

||-------------------------------------|
||o------------------------------------|
||------11p==9-11p9-11-----------------|
||-------------------------------------|
||o---7--------------------------------|
||--7----------------------------------|

||-------------------------------------|
||o------------------------------------|
||-------------------------------------|
||-------------------------------------|
||o-7-7--7-7-7--7-7--7-4-4-4-4-4-4-4-4-|
||--7-7--7-7-7--7-7--7-4-4-4-4-4-4-4-4-|

what does a little 'o' mean?

What does A5 and D5 mean?

Ok, I guess I'm just really, really, really lost... This?

| Gtr IV
| TP TP TP TP TP TP TP TP
|----------------------------------------------|
|----------------------------------------------|
|----------------------------------------------|
|--------------------x\\-x\\-x\\--x\\-x\\-x\\-x\\-x\\--|
|--------------------x\\-x\\-x\\--x\\-x\\-x\\-x\\-x\\--|
|----------------------------------------------|

Thanks in advance for helping.
#2
Q=90 and 4/4 Means the tempo is 90 bpm and in 4/4 time. A5 F#5 D5 are chords.
The little o's are repeat symbols. Guitar 1, 2 and 3 are the different guitars playing in the song, A5 and D5 are chords. I don't know what x\\ is but its probably pick slide or just playing muted strings
I leik music
Last edited by col50 at Sep 28, 2010,
#3
I think I found two tabs that explained stuff a little better - Tommy Gun, and Mix Tape. So I should be fine with these tabs, but Logan to Government Center is still my favorite song, if anyone can help me out with the tabs...
#4
Blessing of RS Gold Wisdom

In the rush for consolidation, this has been tacked onto the old

Blessing Buy WOW Goldof Might, taking

paladins down to two total blessings. If you're DPS, you'll want to go

with url=http://www.storeingame.com]RuneScape Goldthe new and

improved Blessing of Might. Divine Intervention Between short graveyard

runs and teleprocess inside the raid, there isn't much of a point to

having DI anymore. Sure, it's great for us, because we get to skip out

on a repair bill. However, we may see a replacement for it later on in

the beta ifRuneScape Gold we're

lucky. If you need any help or more information about our WOW gold

sales during this sales promotion, please contact us instantly!