#1
I dont know how they are called, they arent palm mutes, maybe ghost notes?? anyway im not sure the proper way to play them. can you tell me how i would play the Xes in these three bars? especially the slide in the third bar. how go you slide into a ghost note?

L = tied note

Q Q E E E E
E||------------------------|
B||------------------------|
G||------------------------|
D||--3----3----x--3--L--x--|
A||--3----3----x--3--L--x--|
E||--1----1----x--1--L--x--|


E E E E E E E E
-----------------------------|
-----------------------------|
------------7--7s--8s--7s--8--|
--x--x--x--7--7s--8s--7s--8--|
--x--1--3--5--5s--6s--5s--6--|
--1--x--x--------------------|


Q Q Q Q
-------------------------||
-------------------------||
--------------------\x----||
--10---------------\x----||
--10---------------\x----||
---8---------------------||
"I can see that we speak the wrong notes."

Warlock NJ Deluxe (haters gonna hate)
Crate EL-10G
Last edited by satanicgurrl at Oct 2, 2010,
#2
The slide part...Pick scrape?
Guitars:
Ibanez S5470 w/ DiMarzio Crunch Lab & Liquifire
Ibanez RG1527
Ibanez SA160
Ibanez E-Acoustic
Selfmade Telecaster w/ DiMarzio Twang King & Chopper T



"Maybe one day we'll wake up and this will all just be a dream"
#3
slide to a mute at the nut. thats how i do it anyway xD

edit: in #1 - they are palm mutes

#2 - mute the fret behind the one you're playing ie. playing 3, mute 2, then strum so only the 3rd fret rings

and #3 is as i said up there ^^ either slide to mute at the nut the way i do it or some people just slide back up the neck muting along the way but not necessarily getting to the nut.
Belief is a beautiful armour but makes for the heaviest sword.
Last edited by Dempsey68 at Oct 2, 2010,
#4
ok thanks guys
"I can see that we speak the wrong notes."

Warlock NJ Deluxe (haters gonna hate)
Crate EL-10G