#1
So my sister has requested I play that guitar as she walks down the aisle. She say says she just wants me to play something acoustic and beautiful. I would go standard "Here Comes the Bride" but I lack the finger-picking skills to give it a full enough sound.

Song suggestions?
Jackson Soloist SL-3
Squire Strat
Crate XT120R
Marshall JH-1 Jackhammer
Dunlop Crybaby
#2
Look up some Explosions In The Sky. A couple suggestions would be Six Days At The Bottom of The Ocean or Your Hand In Mine; just pick an arpeggiated part from any of their songs, really.
#4
I second explosions in the sky. though, they run with three guitars so it'd be pretty hard to fill it out. but if you could do it, it'd be amazing.
Quote by Strato-Massacre
yeah you shouldnt have told the pit to rape your mom.

Quote by Kensai
It's not sexist, girls are just too stupid and weak to hold up doors and stuff for themselves.
#8
Oh, or, play this:


     Q    Q    Q       Q    Q    Q     
E||-------7---------|-------7---------|
B||------------7----|------------5----|
G||-----------------|-----------------|
D||-----------------|-----------------|
A||-----------------|-----------------|
E||--9--------------|--0--------------|


  Q    Q    Q       Q    Q    E   E   
-------5----4----|-------4----2h--4--|
-----------------|-------------------|
-----------------|-------------------|
-----------------|-------------------|
-----------------|-------------------|
--5--------------|--0----------------|


  Q    Q    Q       Q    Q    Q     
-------7---------|-------7---------|
------------7----|------------5----|
-----------------|-----------------|
-----------------|-----------------|
-----------------|-----------------|
--9--------------|--0--------------|


  E  E  Q    Q       E  E  Q    Q     
-----5--4----5----|-----4--2----0----|
------------------|------------------|
------------------|------------------|
------------------|------------------|
------------------|------------------|
--5---------------|--0---------------|

     Q    Q    Q       Q    Q    Q     
E||-------7---------|-------7---------|
B||------------7----|------------5----|
G||-----------------|-----------------|
D||-----------------|-----------------|
A||-----------------|-----------------|
E||--9--------------|--0--------------|


  Q    Q    Q       Q    Q    E   E   
-------5----4----|-------4----2p--0--|
-----------------|-------------------|
-----------------|-------------------|
-----------------|-------------------|
-----------------|-------------------|
--5--------------|--0----------------|


  Q    Q    Q       Q    Q    Q     
-------7---------|-------7---------|
------------7----|------------5----|
-----------------|-----------------|
-----------------|-----------------|
-----------------|-----------------|
--9--------------|--0--------------|


  E  E  Q    Q       E  E  Q    Q     
-----5--4----5----|-----4--2----0----|
------------------|------------------|
------------------|------------------|
------------------|------------------|
------------------|------------------|
--5---------------|--0---------------|


It's from an instrumental piece I wrote.
#9
Great idea with Explosions in the sky! Thanks
Jackson Soloist SL-3
Squire Strat
Crate XT120R
Marshall JH-1 Jackhammer
Dunlop Crybaby
#10
This is why I don't like arguing on the internet.
Quote by damian_91
If only you could back that statement up.
Quote by Zombee
Wolfgang's Philadelphia Study. Look it up yourself.
Quote by damian_91
No need to, absurd generalizations aren't my thing.
#11
your sis wants your dumb ass to play at her wedding? she obviously knows nothing about guitar, what are you afraid of bitch
#12
Jesu, Joy of Man's Desiring

My cousin had Brian Wilson's God Only Knows at her wedding.
Marshall amplifiers are the truest purveyors of rock and roll known to man.

"And give a man an amplifier and a synthesizer, and he doesn't become whoever, you know. He doesn't become us."

Holy crap, check this out!
#13
the wedding march (here comes the bride) is actually a classical piece not meant to be played with a pick. your supposed to play with a classical finger style.
if you played it the right way it would sound like its supposed to.
#16
Quote by AeternumBM
your sis wants your dumb ass to play at her wedding? she obviously knows nothing about guitar, what are you afraid of bitch

You're so cool.

I second the Explosions in the Sky.
What are you dense?
Are you retarded or something?
Who the hell do you think I am?
I'm the goddamn Batman.

April 19th, 2011: The Night of the Boob

#17
Quote by AeternumBM
your sis wants your dumb ass to play at her wedding? she obviously knows nothing about guitar, what are you afraid of bitch


Great first post.
return 0;

Quote by jsync
And I've eaten at some of Australia's best pizzerias.



SOUNDCLOUD
. com / fancy-elle