#1

e-----------------------------
-------------------------------
----------9-----------------------
------10---10--9--10--12--10------9--10--12--10-------10--9--------
-12--------------------------------12---------------------12---------12--7----
E--------------------------------


anyone know this song? I learned it from a cell phone I no longer have. I thought it was in tetris but i cant find it.
#2
Can you give us the rhythm?
Dissonance is Bliss


Signal Chain:
Carvin CT-4
Ibanez TS-9
Carvin Quad-X
TC Electronics G-Major
Mesa/Boogie 2:90
Ear Candy BuzzBomb



Member #4 of the Carvin Club
#3
it just looks like a speed building exercise

in fact that it was i am going to use it for

Ibanez S670FM
Ibanez Masa SX60
Roland Cube 60
CryBaby GCB 95
Ibanez GSR180 Bass



♫ ♫ ♫ ♫ ♫ ♫
#4
Its a classical type song 4/4 I think. the 10 12 10 parts are kinda fast. other then that i dont know what other info to give. i guess i could tab the rest but i dont think it will do much good.


-----------12----------------------------------------------------------------------------
---------------13--12--13--15--13--10--12--13--15--13--10--13--12--10----
------------------------------------------------------------------------------------------9
------10-----------------------------------------------------------------------------------
-12-----------------------------------------------------------------------------------------
-----------------------------------------------------------------------------------------



-10-10-10-10 10 10-13-12-10------------------------------10-------------------------------
---------------------------------------13-13-13-13-13-12-13-----13-12-13-12--
-------------------------------------------------------------------------------------------------
-------------------------------------------------------------------------------------------------
-------------------------------------------------------------------------------------------------
-------------------------------------------------------------------------------------------------



-------------------------------------------------------------------------------------------------
-10-10-10-10-10-10-13-12-10-8-8-8-8-8-10-12-10-8-10-8--------------------------------
-------------------------------------------------------------------------------------------------
-------------------------------------------------------------------------------------------------
-------------------------------------------------------------------------------------------------
-------------------------------------------------------------------------------------------------



-------------------------------------------------------------------------------------------------
-7-7-7-7-7-7-10-8-7-------------7-8-7---7-----12--7-8-10--7-8-10-8-7-8-7------------
---------------------------9-9-9-9-9--------9---9-----------------------------------------------
-------------------------------------------------------------------------------------------------
-------------------------------------------------------------------------------------------------
-------------------------------------------------------------------------------------------------



Thats all I got and it is a great exercise but also a real song
Last edited by metalmetalhead at Mar 16, 2011,