#1
As the title already says, i try to figure out this song in particular the part starting at 2:05.
I could figure out the Intro/Main Riff and Chorus but this part is driving me nuts.


This is what i got so far, maybe you could take a quick look at it.

Intro/Main Riff:
E |-----------------------------|-----------------------------|
B |-----------------------------|-----------------------------|
G |--66-676------------------|-----------------------------|
D |------------9-11-9-7-9-7-|--66-676------------------|
A |------------------------------|-----------9-11-9-7-9-7-|
E |------------------------------|----------------------------|

2nd Guitar plays A and D Powerchords over the Main Riff

Chorus:
E |-------------|------------|------------|-----------|
B |-------------|------------|------------|-----------|
G |-------------|------------|------------|-----------|
D |-------------|-7-7-7-7-|------------|-----------|
A |--4-4-4-4-|- 5-5-5-5-|-7-7-7-7-|-7-7-7-7-|
E |--2-2-2-2-|------------|-5-5-5-5-|-5-5-5-5-|


Hope someone can help me out.
Thanks in advance!
#2
Instead of 11 i play 6 its the same note. Thats a good example of why i dont like tabs.

Its easy break it down into parts

6 6-------676----------6----
-----------------------9----9-7-9-7---
#3
Thanks for your reply metalmetalhead, you're right i haven't noticed that
Any guess how to play the part at 2:05 ?
#4
G-------8----8--------10----10-------------------------
D----10--10------10----10-------------------------------
A------------------------------------------------
E-11----------11------------------------------------

I think they tuned with the piano so my guitar was not in perfect key i am only 50% sure this is right