#1
Hi everyone, I am in dire need of the basic chord progression of "The Fire" by the Roots. I need it because I'm planning on playing it for my school's talent show and I cant find the tabs or sheet music anywhere. It doesnt seem that complex but i have a terrible ear for music when it comes to tabbing on my own. So if someone could list the chords for the Intro, Verse, Chorus and etc. that would be more than anything awesome you can imagine. Much love and i hope someone can help. Please.
Links to reference:
Live version http://www.youtube.com/watch?v=rW1V94mwbDo
Studio Version http://www.youtube.com/watch?v=UfBOeu9m64E

Thank you
#2
This is the progression for most of the song:
e|-2--4------------------------------------------------------------------------|
B|-2--4-------7--9------7---6------7--9------------------------------------|
G|-3--4-------6--8------6---6------6--8------------------------------------|
D|-4--6-------8--9------8---6------8--9------------------------------------|
A|--------------6--7------6---8------6--7-----------------------------------|
E|------------------------------------------------------------------------------|

..except for the parts when the music stops and the piano plays.. (I've already edited it)
e|---4----7----9------------------4-------------------------------------------|
B|---4----7----9--------9---7----4-------------------------------------------|
G|---4----8----10------8---6----4-------------------------------------------|
D|---6----9----11------9---8----6-------------------------------------------|
A|--------------------- 7---6------------------------------------------------|
E|-------------------------------------------------------------------------------|
Last edited by crmrz at Mar 23, 2011,
#4
I changed some chords for the last part of the song:


F#-Ab---Ebm7-Emaj7---Ebm7-Db/F----Ebm7-Emaj7

Abm---B/F#---Db/F----Emaj7---Ebm7---Abm


riff is the same for the whole song..
e|---------------------------------------------------------------------------|
B|---------------------------------------------------------------------------|
G|--------8-------6--------5-----------------------------------------------|
D|-----6------6-------6-------5-------------------------------------------|
A|---------------------------------------------------------------------------|
E|---------------------------------------------------------------------------|
Last edited by crmrz at Mar 23, 2011,
#5
Thank you so much!!! I dont know how to repay you, you are definitely the best on the forums. Much love!!!!