#1
Well i need some help on the tab of this song by someone who is an experienced tabber if that's the word.
Any way on a certain part i need someone to please tab it out a little better as i cant understand the hammer on pull offs because it seems that some notes have P's or H's but no note to pull off or hammer on to.

So here is the part
e|-------0-----------|-------------------|-------------------|
B|---------------1---|-------3----------1|-------3----------1|
G|-----2-------2-----|-----0----------0--|-----2----------2--|
D|---2-------2-------|---2----------2----|---0----------0----|
A|0-------(0)--------|-------------------|-------------------|
E|-------------------|(3)--------(3)-----|(2)--------(2)-----|
Acoustic 2|
|
e|-------------------|
B|-----------5----6--|
G|-------------------|
D|-------------------|
A|-------------------|
E|-------------------|

e|-------------------|-------3----------0|-------------------|
B|-------1----------0|-------------------|-------3----------1|
G|-----2----------1--|-----2----------2--|-----0----------0--|
D|---3----------2----|---2----------2----|---2----------2----|
A|-------------------|(0)--------(0)-----|-------------------|
E|(1)--------(0)-----|-------------------|(3)--------(3)-----|
|
e|-------------------|-------------------|-------------------|
B|8--6--5-6h-5h/3-5-3|1-3h-1hP-----------|------1------------|
G|-------------------|----------2--2~~~~~|-%--2---%-%------2-|
D|-------------------|-------------------|-------------------|
A|-------------------|-------------------|-------------------|
E|-------------------|-------------------|-------------------|

e|-------------------|-------------------|
B|-------3----------1|-------1----------0|
G|-----2----------2--|-----2----------1--|
D|---0----------0----|---3----------2----|
A|-------------------|-------------------|
E|(2)--------(2)-----|(1)--------(0)-----|
|
e|---------0---------|--------------------------|
B|0--1--3-----3-1hP-0|--------------------------|
G|-----------------2-|2P------------------------|
D|-------------------|---3-2hP-2P2P--0--0-------|
A|-------------------|--------------3--3-3-1/3/1|
E|-------------------|--------------------------|

Its coming out all weird when i paste it can so anyway its tab 5.
OK so its just the 2nd acoustic that i need help with I've got the first part of it up until the
|---------0---------|--------------------------|
|0--1--3-----3
so please please someone tab the last part of it out for me so its more understandable you will probably have to go to the tab to make more sense of it because as i said it goes all weird and out of place when i paste it.
http://tabs.ultimate-guitar.com/l/led_zeppelin/babe_im_gonna_leave_you_ver5_tab.htm#comments
any help will be greatly appreciated especially by someone who can play this part them selves
cheers guys
Last edited by mybanez at Mar 26, 2011,
#2
note: try and edit the tab part so it's in "courier new" font. It's really rough the way it is right now. It's a little tough to decipher.

Q#m
e|--6--|
B|--5--|
G|--7--|
D|--7--|x2586
A|--5--|
E|-----|


Play until she breaks up with you.

The most brutal band to ever exist is...

You should go like them...even if you don't like them.


-Sloppyjoe24