#3
Tuning is G : DGDGBd

This is the acoustic part only. Someone else can work on the rest...

Intro:

d|-------------------------------------------------------------------------3---------------------0----------|
B|-----------0---------1----------0---------0----------------3-------------3---------4----------4--------|
G|-------2----------2----------5---------7---------7------------3-------------3--------3-----------3----|
D|--------------0----------0----------0---------0----------5---------5------------5--------5-----------5-|
G|---0----------------------------------------------------5--------------------------------------------------|
D|------------------------------------------------------------------------------------------------------------|

d|----------------------------------------------------------------------0------------------------0----------|
B|-----------0---------1----------0---------0----------------6----------6----------4------------4--------|
G|-------2----------2----------5---------7---------7----------0-----------0-----------3-----------3-----|
D|--------------0----------0----------0---------0-----------------8-----------------------5---------------|
G|---0----------------------------------------------------/8----------------------5-------------------------|
D|------------------------------------------------------------------------------------------------------------|

d|--------------------------------------------------------0----------------------3---------------------0----------|
B|-----------0---------1----------0---------0---------------------3-------------3---------4----------4--------|
G|-------2----------2----------5---------7---------7-----------------3-------------3--------3-----------3----|
D|--------------0----------0----------0---------0---------------5---------5------------5--------5-----------5-|
G|---0---------------------------------------------------------5--------------------------------------------------|
D|------------------------------------------------------------------------------------------------------------|

d|-----------------------------------------------------------------------------------0-------0---------|
B|-----------0---------1----------0---------0----------------------------------------------1---------|
G|-------2----------2----------5---------7---------7p0----------3p0------3------------2---------|
D|--------------0----------0----------0---------0------------------------1----------------3---------|
G|---0---------------------------------------------------------------------------------------x---------|
D|---------------------------------------------------------------1---------------------------3---------|

Verse: (3x)

d|-------------------------------------------------------------------------3---------------------0----------|
B|-----------0---------1----------0---------0----------------3-------------3---------4----------4--------|
G|-------2----------2----------5---------7---------7------------3-------------3--------3-----------3----|
D|--------------0----------0----------0---------0----------5-------5--------------5--------5-----------5-|
G|---0----------------------------------------------------5--------------------------------------------------|
D|------------------------------------------------------------------------------------------------------------|

d|-----------------0------------------------0-------------------------0----------0------|
B|-------1-----------1--------------1---------1------------3------------3------3------|
G|----------0-----------0--------------0---------0------------0------------0---0------|
D|-------------3---------------------------3----------------------5--------------5------|
G|--------------------------------3---------------------5-------------------------5------|
D|---3------------------------------------------------------------------------------------|


(strum)
d|--3-------5------5------0--------3-------5------7---------------------------------|
B|--3-------4------3------1--------3-------4------6---------------------------------|
G|--0-------5------3------2--------0-------5------7---------------------------------|
D|--1-------x------0------3--------1-------x------x---------------------------------|
G|--0-------5------0------x--------0-------5------7---------------------------------|
D|--1----------------------3--------1--------------------------------------------------|
Last edited by crmrz at Mar 28, 2011,