#2
Drop D tuning (DADGBE)

(strum chords)


intro:

e|---0-----0-----------------------0-----0-----0--------0--------------------------|
B|---0-----0-----------------------0-----0-----0--------0--------------------------|
G|---4-----13---------------------9-----11---13-------16------------------------|
D|---2-----11-----(3 times)----7-----9-----11------16-------------------------|
A|---2-----11---------------------7-----9-----11------14--------------------------|
D|---2-----11---------------------7-----9-----11-----------------------------------|


Verse:

e|--(0)------(0)---(0)---------------|
B|--(0)------(0)---(0)---------------|
G|--(x)------(x)---(x)----------------|
D|---2-------11----9-----------------|(4x)
A|---2-------11----9-----------------|
D|---2-------11----9-----------------|

e|----0-----------------|
B|----0-----------------|
G|----4-----------------|
D|----2--------2-------|
A|----2--------2-------|
D|----2--------2-------|


(Chorus):
e|----0------0------0-------0---------0-------0-------0------------------------------|
B|----0------0------0-------0---------0-------0-------0------------------------------|
G|----x------x-------x------x---------x--------x-------x------------------------------|
D|----7------2------11-----9---------7-------2-------9------------------------------|
A|----7------2------11-----9---------7-------2-------9-------------------------------|
D|----7------2------11-----9---------7-------2-------9-------------------------------|

e|----0-----0--------0----------------------|
B|----0-----0--------0----------------------|
G|----x-----x--------x----------------------| (2x)
D|----7-----11------9----------------------|
A|----7-----11------9----------------------|
D|----7-----11------9----------------------|

intro.. verse..

e|---0-------x--------------------|
B|---0-------x--------------------|
G|---x-------8--------------------|
D|---2-------x--------------------|
A|---2-------6--------------------|
D|---2-------x--------------------|

chorus...

Bridge:

e|-----------0-------------0------------|
B|-----------0-------------0------------|
G|-----------x-------------x------------|
D|-----------9-------------7------------|
A|-----------9-------------7------------|
D|-----------9-------------7------------|
...it's woth fighting for

e|----0----------0------0---------------|
B|----0----------0------0---------------|
G|----x----------8------x---------------|(2x)
D|----2----------6------7---------------|
A|----2----------6------7---------------|
D|----2----------6------7---------------|
..God knows..

e|-----0------0------0--------------------0---------0-------------------------------|
B|-----0------0------0--------------------0---------0-------------------------------|
G|-----x------x------x---------------------x---------x-------------------------------|
D|-----2------6-----7-----2 times------4---------9-------------------------------|
A|-----2------6-----7---------------------4---------9-------------------------------|
D|-----2------6-----7---------------------4---------9-------------------------------|

chorus.. last chord: 222x00
Last edited by crmrz at Mar 28, 2011,