#1
Hello.
Last time i saw "Thailand's Got Talent"s video with some tranny guy.
When i heard a background music (2 mixed songs) i was just like "w00t i have to learn that". But i'm not so good with tabs recognizing.
May i ask You, dear community, to tab the background music for me?
Link to the video: http://www.youtube.com/watch?v=J8UdcKfw528 (1:50-3:10 part)
Original song is Unlovable by Mild, but it doesn't sound the same. Still it can help You with tabbing.
#2
Standard 1/2 step down

Chords:
G:355433
Bm7:x244232
Em7:022030
Am7:x02010
D:xx0232
Dm7:x57565
Cmaj7:x35453
Cadd9:x32033


Intro:

(2nd guitar)
e|---------------------------------------------------------------3------------------------------3----|
B|-------------3-------------3----------------3-------------3-----------------3------------3-------|
G|----------0-------------0---------------2--------------0----------------0-------------0----------|
D|-------0-------------2--------------4---------------------------------0----------------------------|
A|---------------------------------2------------------3-----------------------------3-----------------|
E|---3--------------0-----------------------------------------------3---------------------------------|

(1st guitar)
e|------------------------------------------------------------------------------------------|
B|------------------------------------------------------------------------------------------|
G|---5/7--4-2--4---------5/7---4-2--4p0-0----0--------------------------------------|
D|-------------------4-----------------------------------4--2--0--2--4--4/5---0----------|
A|-------------------------------------------------------------------------------------------|
E|-------------------------------------------------------------------------------------------|


Verse: (2x)
e|-----------------------------------------------------------2---------------3------------------|
B|--------------3-------------3-------------3-----------3---------------3-------------3---------|
G|----------0--------------2-------------0----------2----------------0--------------0------------|
D|-------0--------------0-------------2----------0--------------------------------0---------------|
A|-----------------------------------------------------------------3--------------2----------------|
E|---3--------------2-------------0----------------------------------------------------------------|

e|-----------------------------3p2-------------------------------------|
B|------------1-------------3-------3-----3-------------7+-----------|
G|---------0------------2--------------2-----------------7+----------|
D|------2------------0-----------------------0-----------7+----------|
A|---0------------------------------------------------------------------|
E|-----------------------------------------------------------------------|

Chorus:
G Bm7 Em7 Dm7-G Cmaj7 Bm7 Am7 D (2)
G Bm7 Em7 Dm7-G Cmaj7 Bm7 Am7-Bm7-Cmaj7-D (2)
Em7 D Cadd9 Bm7 Am7 Bm7 Cmaj7 D Cmaj7-D
Last edited by crmrz at Mar 29, 2011,