#1
I feel retarded for even having to ask this, but i'd like for someone to just tab out the intro to this song, it's such a good song, there a local band that just kick tons of ass, i'll figure out the verses, i'm terrible at learning by ear though so if anyone wants to tab this out in guitar pro i would be ever so full of joy, but on here is awesome too, the song is evolution of the skid by ninjaspy, there a skacore band from coquitlam, british columbia

http://www.youtube.com/watch?v=QAGkl4j68K8
Last edited by maowcat at Mar 31, 2011,
#2
interesting

e|---------------------------------------------------------------------------|
B|---------------------------------------------------------------------------|
G|---------------------6---5-----------------------------------------------|
D|-------------------- 5---4----------------------------5------------------|
A|----------3-5---5--6---5----------------3-5---5-6----6--5-----------|
E|--3-5-6--------------------------3-5-6---------------------------------|

e|---------------------------------------------------------------------------|
B|---------------------------------------------------------------------------|
G|---------------------6---5------------------------------------------------|
D|---------------------5--4------------------------------ ------------------|
A|----------3-5---5--6--5------------6---5---3--------------------------|
E|--3-5-6-------------------------------------------6---5---3/2---3-----|
#4
No problem, cool song, fun to play. And I think the verse is just Gmin, Fmin.