#2
e|--------------------0--------0-------------------------------|
B|-----------------------------------------------------------|
G|-----3-4------4-7------7-9------------------------------------|
D|2-5------5-6-------8-9-----------------------------------------|
A|---------------------------------------------------------------|
E|---------------------------------------------------------------|

I'll tab the rest tommorow have to go to bed
#3
E|--------------------0-----------0-----0-----------------------0------------------------------|
B|---------------------------------------------------------8--------8/10----8--------10-11-12|
G|-----3-4------4-7---------7-9--------7----------7-9----6/7--------7/9---9--12-----------|
D|2-5------5-6--------9\8-9------8/9----9/11-11--------------------------------------------|
A|-----------------------------------------------------------------------------------------------|
D|-----------------------------------------------------------------------------------------------|

E|---------------------10--------------------12-------------------------15---------------------20b22|
B|-------------11-12----------------12-15-----------15--------15h17-------------17-20-17--------|
G|-12/14-14-------------14-14/15-----------14/16----16/18--------------18/19-------------------|
D|-------------------------------------------------------------------------------------------------------|
A|-------------------------------------------------------------------------------------------------------|
D|-------------------------------------------------------------------------------------------------------|
hold that crap out!! bend down while picking! vibrato as wide as balls!!
e|-------------------22-22-22-21-20-----19-18-17-----------------------------|
B|---------------------------------------------------------20~~b22-----------------|
G|--------------------------------------------------------------------------------|
D|-------------------------------------------------------------------------------|
A|----------------------------------------------------------------x\\\\------------|
D|----------------------------------------------------------------x\\\\-----------|

e|-5-------------7------------------10------------------17----------------17b19~~~--|
B|---8b10b8-5---10b12b10-8----14b15b14-12-----20b22-22-20------------------|
G|--------------------------------------------------------------------------------|
D|--------------------------------------------------------------------------------------|
A|--------------------------------------------------------------------------------------|
D|-----------------------------------------------------------------------------|
random pick slides!?
e|-0--0-0-7//---0-0--12//-0-0--12/14--12------10------9-------8----------------|
B|-------------------------------------------15b17-13b15-12b14-11b13-------|
G|----------------------------------------------------------------------------------|
D|-------------------------------------------------------------------------------|
A|---------------------------------------------------------------------------------|
D|----------------------------------------------------------------------------------|
Here you go bud!
sorry it came out a little cramped
Last edited by sexybacon at Apr 2, 2011,
#4
Wow, thanks man!

I really hadn't been expecting a response. XD

Thanks a lot
Last edited by Oujou at Apr 2, 2011,