#1
As the George Harrison of a newfound Beatles cover band, I have to play help. This is not at all a big deal, except for the little bluesy interludes after the verse (http://www.youtube.com/watch?v=nK0MVn4gxJs it's there at 0:15)
in tablature, it would be this:

e|---------------------------------------------------|
b|---------0-------0-------0-------0---------------|
g|-------0-------0-------0-------0-----------------|
d|-----5-------4-------4-------2-------------------|
a|---7-------6-------5-------4---------------------|
E|---------------------------------------------------|

But I'm having a hell lot of trouble playing this. Could someone share with me the technique to perform this: Quick downward picking, maybe sweeping or playing with my fingers?

Help would be appreciated (pun intended)

#3
Well I can do that, but my biggest problem is that after I finish the B note on the B string I'm not back at the A string in time
#6
You just pick the notes, you don't need to do anything out of the ordinary.

The problem is simply that you don't know that part well enough to play it at full speed. Work on it at a slower speed until you've got the motions refined, then look at speeding it up - that's a fundamental principle of good practice.
Actually called Mark!

Quote by TNfootballfan62
People with a duck for their avatar always give good advice.

...it's a seagull

Quote by Dave_Mc
i wanna see a clip of a recto buying some groceries.


stuffmycatswatchontv.tumblr.com
#8
Given that all the notes follow each other in a downward sequence I think that's a no-brainer...
Actually called Mark!

Quote by TNfootballfan62
People with a duck for their avatar always give good advice.

...it's a seagull

Quote by Dave_Mc
i wanna see a clip of a recto buying some groceries.


stuffmycatswatchontv.tumblr.com
#10
It's all down to practice, but a handy picking pattern would be D-D-D-U... that way you're travelling towards the next string as you pick the last one. Only way I could do that riff.
#11
e|---------------------------------------------------|
b|---------0-------0-------0-------0---------------|
g|-------0-------0-------0-------0-----------------|
d|-----5-------4-------4-------2-------------------|
a|---7-------6-------5-------4---------------------|
E|--------------------------------------------------|

Down-Down-Down-Up x4