#1
Hey guys I need tabs for beautiful one by intercept.

Its a really good band but they aren't that popular right now. I have looked for tabs for this song every where but couldn't find them please help.
#2
Some chords:
Amaj7:x02224
Bmadd5:x24430


Intro:

e|------------------------------------------------------|
B|-------5----------------------------------------------|
G|--4/6----6\4---2h4-2-----2-----------------------|(2x)
D|---------------------------4----4--2h4p2----------|
A|-----------------------------------------------2/-----|
E|-------------------------------------------------------|

e|------------------------------------------------------------------5/7\5------------|
B|---2h3--5--5--5---3---2h3p2-------2h3--5--3--2------5/7\5------------|
G|---------------------------------------------------------------------------------|
D|---------------------------------------------------------------------------------|
A|---------------------------------------------------------------------------------|
E|---------------------------------------------------------------------------------|

intro :
A Bm

Verse:
Amaj7 Bmadd5 (2)

intro..verse..

Chorus?:
Dbm Bm A
Dbm Bm

intro..verse.. chorus..intro..

Solo: (2x) Chords: A D (2)
e|---------------------------------------------------------|
B|-------5--------------------5--7------------------------|
G|--4/6----6\4---2--4/6----------------4/6\4---------|
D|----------------------------------------------------------|(2x)
A|----------------------------------------------------------|
E|---------------------------------------------------------|

e|----------------------------------------------------------------------------------------------------|
B|----------------------------------------------------------------------------------------------------|
G|---2/4----4/6----2/4---2--4--2-----2/4\2-----2/4---4/6----2/4----2---4---2-------------|
D|----------------------------------------------------------------------------------------------------|
A|----------------------------------------------------------------------------------------------------|
E|----------------------------------------------------------------------------------------------------|

Last chord:x02200
Last edited by crmrz at Apr 4, 2011,