#1
This is by far my favourite song off the new album and I'm dying to be able to play along (sounds sad I know) If you haven't already heard it you can listen here:
http://wastinglight.foofighters.com/

There is also a very good live video with clear view of Dave here (not my youtube):
http://www.youtube.com/watch?v=BuRd7Hcao8w

I have figured out some of the chords but they all seem a bit irregular!

Thanks

PS for all you Nirvana fans this is the track with Krist playing bass
Fender Custom Shop Designed 50's Classic Player Strat
Orange Micro Terror
#2
This is the LIVE version...

It's the slow part only, I know some of you guys can finish off the song..


e|--------------------------------|
B|--------------------------------|
G|-----------0-------------------|
D|---------------0---------------|(4x)
A|----1-----------------1--------|
E|-3-----3----------3-----------|

e|--------------------------------------------------------------------------------------|
B|--------------------------------------------------------------------------------------|
G|-----------0-------------------0--------------------2------------------2-----------|
D|--------------0-------------------0------------1-------1---1----1--------1---1----|
A|----1--------------1-----1--------------1---3---3-------3----3---3--------3------|
E|-3-----3--------3-----3----3--------3----------------------------------------------|

e|--------------------------------------------------------------------------------|
B|--------------------------------------------------------------------------------|
G|-------2------------------3-------------------3------------------0------------|
D|---1------1---0-----0------0---------1---------1---1------------------------|
A|-0---0------0-----1---1------1-0--3---3---------3------3------------------|
E|-----------------------------------------------------------1----1-----------1---|

e|---------------------------------------------8--------------|
B|---------------------------------------------8--------------|
G|-------0--------------------0--------0-----0--------------|(3x)
D|-----0----------3---------0-------8--------x--------------|
A|---1---------3---------5--------8----------7--------------|
E|-3--------5---------6-----------------------8--------------|

(Strum)

e|--3---3---3----3---5----8------|
B|--4---3---4----3---6----8------|
G|--3---3---3----3---5----0------|
D|--5---0---5----0---7-----x------|
A|-------x---------x---------7------|
E|-------3---------3---------8------|
Last edited by crmrz at Apr 5, 2011,
#3
thanks! This is just what i needed to get going
Fender Custom Shop Designed 50's Classic Player Strat
Orange Micro Terror