#1
well on piano i play
B, C#, and E

then right after i play
A, C#, and E

on guitar i start on the C# so its
C#, E, B
C#, E, A

and i cant figure out the name of the chords, i need help.. some one help me out?
#2
C# E and A is just an A chord, and the other one (I had to look it up) can be called C#m7 or E6.
#3
Quote by Exhumed91
C# E and A is just an A chord, and the other one (I had to look it up) can be called C#m7 or E6.


oh fail (on the Amajor) thank you
#5
hm, whats the name of the chord thats
5th fret on A,
3rd on D
5th on G

e------------------------------
b------------------------------
g----------------5-------------
d----------------3---------------
a----------------5--------------
e----------------------
#6
Quote by Darkdevil1584
hm, whats the name of the chord thats
5th fret on A,
3rd on D
5th on G

e------------------------------
b------------------------------
g----------------5-------------C
d----------------3---------------F
a----------------5--------------D
e----------------------


it's either Gsus2,Dsus4 but from your tab i can tell it just Dm7with out 5th
#7
allright i got this thanks forums

(im playing this chord progression,
Emajor
D# minor7th (#5th)
C# minor 7th
C# minor 7th (#5th)

i hope i got that right, it sounds really nice on piano =P