#1
hey everyone! my band is going to play duncan hills coffee jingle i can play the solo perfect buttttt i cant figure out the rest of the song i have the tab book but guess what? it not in there and the tabs are all down! so anyone have some tabs or guitar pro? thanks for the help everyone!
#2

    H        H           H        H             H        H         
E||--------------------|----------------------|--------------------|
B||--------------------|----------------------|--------------------|
G||--------------------|----------------------|--------------------|
D||--0--------6--------|--0-------------------|--0--------6--------|
A||--0--------6--------|--0-------------------|--0--------6--------|
D||--0--------6--------|--0--------3br--------|--0--------6--------|


  H        H             E  E  E  E  H           E  E  E  E  H           
----------------------|-----------------------|-------------------------|
----------------------|-----------------------|-------------------------|
----------------------|-----------------------|-------------------------|
--0-------------------|--------------6--------|-------------------------|
--0-------------------|--------------6--------|-------------------------|
--0--------3br--------|--0--0--0--0--6--------|--0--0--0--0--3br--------|


  E  E  E  E  H           E  E  E  E  E  E  E  E   
-----------------------|--------------------------|
-----------------------|--------------------------|
-----------------------|--------------------------|
--------------6--------|--------------3-----------|
--------------6--------|--------------3-----------|
--0--0--0--0--6--------|--0--0--0--0--3-----------|


  PM PM PM PM PM PM PM PM PM PM PM PM PM PM     
  S  S  S  S  S  S  S  S  S  S  S  S  S  S  E   
-----------------------------------------------|
-----------------------------------------------|
-----------------------------------------------|
--------------------------------------------3--|
-----------5--6--5-----------------5--6--5--3--|
--0--6--7-----------7--6--0--6--7-----------3--|


  PM PM PM PM PM PM PM PM PM PM PM PM PM PM     
  S  S  S  S  S  S  S  S  S  S  S  S  S  S  E   
-----------------------------------------------|
-----------------------------------------------|
--------------------------------------------5--|
--------------------------------------------5--|
-----------5--6--5-----------------5--6--5--3--|
--0--6--7-----------7--6--0--6--7--------------|


  PM PM PM PM PM PM PM PM PM PM PM PM PM PM     
  S  S  S  S  S  S  S  S  S  S  S  S  S  S  E   
-----------------------------------------------|
-----------------------------------------------|
-----------------------------------------------|
--------------------------------------------3--|
-----------5--6--5-----------------5--6--5--3--|
--0--6--7-----------7--6--0--6--7-----------3--|


  PM PM PM PM PM PM PM PM PM PM PM PM PM PM     
  S  S  S  S  S  S  S  S  S  S  S  S  S  S  E   
-----------------------------------------------|
-----------------------------------------------|
--------------------------------------------5--|
--------------------------------------------5--|
-----------5--6--5-----------------5--6--5--3--|
--0--6--7-----------7--6--0--6--7--------------|


  PM PM PM PM PM PM PM PM PM PM PM PM PM PM     
  S  S  S  S  S  S  S  S  S  S  S  S  S  S  E   
-----------------------------------------------|
-----------------------------------------------|
-----------------------------------------------|
--------------------------------------------3--|
-----------5--6--5-----------------5--6--5--3--|
--0--6--7-----------7--6--0--6--7-----------3--|


  PM PM PM PM PM PM PM PM PM PM PM PM PM PM     
  S  S  S  S  S  S  S  S  S  S  S  S  S  S  E   
-----------------------------------------------|
-----------------------------------------------|
--------------------------------------------5--|
--------------------------------------------5--|
-----------5--6--5-----------------5--6--5--3--|
--0--6--7-----------7--6--0--6--7--------------|


  PM PM PM PM PM PM PM PM PM PM PM PM PM PM     
  S  S  S  S  S  S  S  S  S  S  S  S  S  S  E   
-----------------------------------------------|
-----------------------------------------------|
-----------------------------------------------|
--------------------------------------------3--|
-----------5--6--5-----------------5--6--5--3--|
--0--6--7-----------7--6--0--6--7-----------3--|


  PM PM PM PM PM PM PM PM PM PM PM PM PM PM                          
  S  S  S  S  S  S  S  S  S  S  S  S  S  S  E     H        H         
-----------------------------------------------|--------------------|
-----------------------------------------------|--------------------|
--------------------------------------------5--|--------------------|
--------------------------------------------5--|--0--------6--------|
-----------5--6--5-----------------5--6--5--3--|--0--------6--------|
--0--6--7-----------7--6--0--6--7--------------|--0--------6--------|


  H        H             H        H           H        H           
----------------------|--------------------|----------------------|
----------------------|--------------------|----------------------|
----------------------|--------------------|----------------------|
--0-------------------|--0--------6--------|--0-------------------|
--0-------------------|--0--------6--------|--0-------------------|
--0--------3br--------|--0--------6--------|--0--------3br--------|


  H        H           H        H             H        H         
--------------------|----------------------|--------------------|
--------------------|----------------------|--------------------|
--------------------|----------------------|--------------------|
--0--------6--------|--0-------------------|--0--------6--------|
--0--------6--------|--0-------------------|--0--------6--------|
--0--------6--------|--0--------3br--------|--0--------6--------|


                          |--3--|  |--3--|                              
  H        H              S  S  S  S  S  S  E   S  S  E   E   S  S  E   
----------------------|--17-13----------13-17--15-17-18--17--15-13-12--|
----------------------|--------15----15--------------------------------|
----------------------|-----------14-----------------------------------|
--0-------------------|------------------------------------------------|
--0-------------------|------------------------------------------------|
--0--------3br--------|------------------------------------------------|


   T  T  T  T  T  T  T  T  T  T  T  T  Q.     S S S S  
--12-15-12----------------------12-13-15--------------|
-----------13----------------13-----------------------|
--------------12----------12--------------------------|
-----------------14----14-----------------------------|
--------------------15--------------------------------|
------------------------------------------------------|


   E.    S  S S  S S  E.    S  E   E   
--------------------------------------|
--18b---18-17---20---20b---20-18--17--|
--------------------------------------|
--------------------------------------|
--------------------------------------|
--------------------------------------|


   T  T  T  T  T  T  T  T  T  T  T  T  T  T  T  T  T  T  T  T  T  T  T  Q    T  
-------------------------------------------------------------------------------|
--18-17-15-17-15----15---------------------------------------------------------|
-----------------17----17-15-17-15-14-15-14----14------------------------------|
--------------------------------------------17----17-15-17-15-14-15-14---------|
-----------------------------------------------------------------------17------|
-------------------------------------------------------------------------------|


   |--3--|  |--3--|                              
   S  S  S  S  S  S  E   S  S  E   E   S  S  E   
--17-13----------13-17--15-17-18--17--15-13-12--|
--------15----15--------------------------------|
-----------14-----------------------------------|
------------------------------------------------|
------------------------------------------------|
------------------------------------------------|


   T  T  T  T  T  T  T  T  T  T  T  T  Q.      S S S S  
--12-15-12----------------------12-13-15~--------------|
-----------13----------------13------------------------|
--------------12----------12---------------------------|
-----------------14----14------------------------------|
--------------------15---------------------------------|
-------------------------------------------------------|


   E.    S  S S  S S  E.    S  E   E      E.    S  S S  S S  E.    S  E   E   
--------------------------------------|--------------------------------------|
--18b---18-17---20---20b---20-18--17--|--20b---20-18---22---22b---22-20--18--|
--------------------------------------|--------------------------------------|
--------------------------------------|--------------------------------------|
--------------------------------------|--------------------------------------|
--------------------------------------|--------------------------------------|


   E.    S  E   E   E   E   E   E      W                          
--18b---18-17----------------------|--------------------|-------||
---------------20--18--17----------|--------------------|-------||
---------------------------19--18--|--19----------------|-------||
-----------------------------------|--------------------|-------||
-----------------------------------|--------------------|-------||
-----------------------------------|--------------------|-------||