#1
Hi,

my first post here! But I was looking for some help with the theme song from Con Air the movie. The theme can be found here

Youtube video of theme

It starts at around 48 seconds. But I'm looking for some help tabbing it. I think it maybe simple for some of the pro players but I just really started ^^

Thanks!!

EN

#2
This may not be 100% as i tabbed this while playing acoustically but this is what i hear:

|--------------------|
|--------------------|
|--------9----------|
|-9------9----------|
|-9------7-----6----|
|-7------------------|

|-16-15-16---|-15b(16)-15-----15--|
|----------------|----------------16------|
|----------------|------------------------|
|----------------|------------------------|
|----------------|-------------------------|
|----------------|-------------------------|

|-15b(17)-15-------------|
|----------------16b(18)---|
|-----------------------------|
|-----------------------------|
|-----------------------------|
|------------------------------|

|-------|
|-------|
|-------|
|-6-----|
|-6-----|
|-4-----|

Edit:// sorry for the tab looking crap but its hard to make it look good in this forum text.
Last edited by SumFX at Apr 9, 2011,
#3
Thanks for the reply I tried it out, the first bit sounds good. TY!
I'm a little confused on the end part, the third set of notes, keep trying but doesn't seem to fit the rest haha, maybe it's just me. I'll keep trying diff notes to see.

E.N
#4
Quote by SumFX
This may not be 100% as i tabbed this while playing acoustically but this is what i hear:

|--------------------|
|--------------------|
|--------9----------|
|-9------9----------|
|-9------7-----6----|
|-7------------------|

|-16-15-16---|-15b(16)-15-----15--|
|----------------|----------------16------|
|----------------|------------------------|
|----------------|------------------------|
|----------------|-------------------------|
|----------------|-------------------------|

|-15b(17)-15-------------|
|----------------16b(18)---|
|-----------------------------|
|-----------------------------|
|-----------------------------|
|------------------------------|

|-------|
|-------|
|-------|
|-6-----|
|-6-----|
|-4-----|

Edit:// sorry for the tab looking crap but its hard to make it look good in this forum text.



I know this thread is old. but is you just adapt this then it sound better:

|--------------------|
|--------------------|
|--------9----------|
|-9------9----------|
|-9------7-----6----|
|-7------------------|

|-16-15-16---|-16-15-----15--|
|----------------|---------16------|
|----------------|------------------|
|----------------|------------------|
|----------------|------------------|
|----------------|------------------|

|-16-15-------------|
|--------16/18------| -> slide from 16 to 18
|---------------------|
|---------------------|
|---------------------|
|---------------------|

|-------|
|-------|
|-------|
|-6-----|
|-6-----|
|-4-----|

hope it still helps for future searchers