#1
Looking for a good ultimate guitar for "Back & Forth" and "A Matter of Time"

The text tabs leave something to be desired.


Cheers.
#4
A Matter of Time

(Song is incomplete, missing bridge and last chorus, it's all I can tab right now, I'm busy..I'll finish it later)

Intro:

e|------------------------------------------------------------------|
B|-----------------------------------------------------------------|
G|----------------------------------------------------------------| (3x)
D|------9----------9-----9-9-----------------------------------|
A|------7----------7-----7-7---------4/6\4--------------------|
E|---0------0---0---------------0----2/3\2p0-----------------|


e|-------------------------------------------------------|
B|------------------------------------------------------|
G|------------------------------------------------------|
D|------9----------9-----9-9-------------------------|
A|------7----------7-----7-7-------------------------|
E|---0------0---0---------------0--------------------|


Verse: (2x)

e|-------------------------------------------------------------------------------------|
B|-------------------------------------------------------------------------------------|
G|-------------------------------------------------------------------------------------|
D|--999999999-999999999-77777777777-777777777-------------------|
A|--777777777-666666666-55555555555-444444444----4/6\4--------|
E|---------------------------------------------------------------------------2/4\2p0-----|

e|---------------------------------------------------------0--------------------------0-------------|
B|------------------------------------------------------0----0--------------------0-----0----------|
G|--------------------------------------------------9----------9-------------11-----------11------|
D|----555555555-999999999----------11------------------------10-------------------------|
A|----333333333-777777777-----12-------------------------12-----------------------------|
E|---------------------------------------------------------------------------------------------------|


e|-----------------------|
B|-----------------------|
G|---9-------------------|
D|---9------------------|
A|---7------------------|
E|----------------------|


Prechorus:

e|---------------------------------------------------------------------------------------------------|
B|---------------------------------------------------------------------------------------------------|
G|----------------2---4-----------------2--4-------------------------------------------------------|
D|--2---4---5---0---2-----2--4--5----0--2--------------------2--4------------------2---4------|
A|--0---2---3--------------0--2--3------------2---4--6--------0--2-----2--4--6----0---2------|
E|------------------------------------------------0---2--4------------------0--2--4----------------|

e|---------------------------------------------------------------------------------|
B|--------------------------------------------------------------------------------|
G|----------------2---4-----------------2--4---------------------4/6----------|
D|--2---4---5---0---2-----2--4--5---0--2-----------------------------------|
A|--0---2---3--------------0--2--3-------------------------0---2/4----------|
E|------------------------------------------------0---2---4---------------------|


Chorus:

e|--------------------------------------------------------------------------------|
B|--------------------------------------------------------------------------------|
G|------------------------------------------------------------------------4/6-----|
D|----777777777-777777777---5555555555--99999-----------------|
A|----555555555-444444444---3333333333--77777----2/4-----|
E|------------------------------------------------------------------------------|

e|----------------------------------------------------------------|
B|---------------------------------------------------------------|
G|---------------------------------------------------------------|
D|----777777777-777777777---5555555555----------| (back to intro)
A|----555555555-444444444---3333333333----------|
E|---------------------------------------------------------------|

verse, prechorus, chorus...
Last edited by crmrz at Apr 10, 2011,