#3
I cant seem to find any tabs for jett black at all :/ shame cos they are a cool band!
#7
d|-----------------------------------------|----------0-----------0------------------|~
a|-------7\5-----5\3-----3\2-----0-----0h2-|-3-----------3-----2---------------------|~
G|----------------------------------0------|----0-----------0--------0-----2p0-------|~
d|-----------------------------------------|-----------------------------------------|~
A|----0--7\5-----5\3-----3\2-----0-----0h2-|-3-----3-----------2--------2-------3--2-|~
D|-0----------0-------0-------0------------|-----------------------------------------|~

d|-----------------------------------------|-----------3p0--------0------------------|~
a|-------7\5-----5\3-----3\2-----0-----0h2-|-3--------------3--2---------------------|~
G|----------------------------------0------|----0--------------------0-----2p0-------|~
d|-----------------------------------------|-----------------------------------------|~
A|----0--7\5-----5\3-----3\2-----0-----0h2-|-3-----3-----------2--------2-------3--2-|~
D|-0----------0-------0-------0------------|-----------------------------------------|~

d|------------------------------------------|-5-----------5--5--4-h-0-----------------------|~
a|-------7\5-----9\5----10\9-----5--/7--7/9-|----------5------------------------------------|~
G|------------------------------------------|----0--0------------------0--------------------|~
d|------------------------------------------|--------------------------------3h5-p3p2p0-----|~
A|----0--7\5-----9\5----10\9-----5--/7--7/9-|-3-----3-----------2------------------------3--|~
D|-0----------0-------0-------0--0----------|-----------------------------0----------------3|~

d|-----------------------------------------|----------/5\3--3--0--0-----------------------------------<12>-||
a|------/7\5-----5\3-----3\2-----0-----0h2-|-3--------/5\3--3--2----------2p0---------------------<12>-----||
G|----------------------------------0------|----0-------------------0-------------------------<12>---------||
d|-----------------------------------------|-----------------------------------------------0---------------||
A|----0-/7\5-----5\3-----3\2-----0-----0h2-|-3-----3--------3--2-------2----------------0------------------||
D|-0----------0-------0-------0------------|-----------------------------------3--2--0---------------------||