#1
Hey..
Was just wondering i can't really tab music not gonna lie ahah but just got ed sheerans no.5 collaboration CD and couldnt find any tabs for it anywhere? if anyone knows where to find any of them or if anyone would be kind enough to tab any of the songs from that album that would be awsome!

Thanks

kozymoore
#6

"RADIO"

INTRO/VERSE:

Capo 2 (written assuming second fret = 0)

E
B
G-----------|-----------|------------|-------------
D-----5---5-|-----4---4-|------2---2-|-------------
A---2-------|---2---2---|-2h3----3---|----2---2----
E-0-----0---|-0---------|------------|-\3---3------


E----------------|-----------------------|-----------------|---------
B-----7-----7----|-------12------12------|-----5-----5-----|---------
G---7-----7----7-|----12------12------12-|---5-----5----5--|---------
D----------------|-----------------------|-----------------|----%----
A-5-----5----5---|-10------10------10----|-3-----3----3----|---------
E----------------|-----------------------|-----------------|---------

then quick chops of high strings on barre chords:

F#m (at the "7th" fret)
Emaj
Amaj
C#maj


not positive about that middle part. he could be playing the Amaj arpeggio as a D shape on the higher strings, but i figured he was probably just made it a repetitive motion. also not sure if those are the correct notes he uses in the arpeggio ( could be 5-R-3 instead or R-R-3). i can't really hear well on these speakers.

that was easy to figure out. total bitch to write down. haha. i hate tabs so much.

but anyway. i might get to the other two later. maybe not.
#DTWD
Last edited by primusfan at Apr 23, 2011,