#1
Guitar riff:

A-7-5-8-6--7--5-7-5-8-6--7
E-7-5-8-6--7--5-7-5-8-6--7


song name please, it's driving me crazy
~don't finkdinkle when ur supposed to be dimpdickin~
#2
???????????
No clue man.
Guitars
Ibanez Prestige RG355OXM
Fender Mexican Deluxe Series Stratocaster
Fender Squire Bullet
Schecter Damien Elite 8
Yamaha F325 Acoustic

Amps
Peavey 5150 II Full stack
Peavey 2001 Studio Pro 112
Roland Micro Cube
#3
Looks like the intro for Stairway... >_>
Quote by Yakult
Shooting mice is the equivalent to smoking weed: it's fun and seemingly harmless, but before you know it, you're shooting smack into every vein and murdering children left right and center.



GeEbZ.
#4
Quote by Geebz
Looks like the intro for Stairway... >_>

Nah, it's Smoke On The Water.
#5
Quote by blue_strat
Nah, it's Smoke On The Water.

i literally just imagined that right now.
E-married to BlessedRebel15
Most Attractive Female 2011 ^^
Dark Black Rivers in the WinterTime
Quote by CrunchyRoll
I'm not sure if you're aware of this or not, but everything is against the rules at UG
#6
Are you in Drop? If so, why?

You, good sir, have not gone over to your friends house after a hard night of drinking to find 2 dudes passed out in the same room both holding their own flaccid cocks in hand, passed out, with porn on the tv.
#8
it just looks like a generic grindcore/brutal death metal riff.
There's no such thing; there never was. Where I am going you cannot follow me now.
#9
Quote by RisingForce1990
Are you in Drop? If so, why?


no i am not

please, this is driving me up the goddamn wall
~don't finkdinkle when ur supposed to be dimpdickin~
#10
I have no idea. From the looks of it, it isn't a very good song. But that's just me playing the tones in my head.

You, good sir, have not gone over to your friends house after a hard night of drinking to find 2 dudes passed out in the same room both holding their own flaccid cocks in hand, passed out, with porn on the tv.
#13
Let me guess. The drum beat is just a straight forward 4/4 beat with snare on two and four and it ultimately ends up syncopating the riff?

You, good sir, have not gone over to your friends house after a hard night of drinking to find 2 dudes passed out in the same room both holding their own flaccid cocks in hand, passed out, with porn on the tv.
#14
Quote by RisingForce1990
Let me guess. The drum beat is just a straight forward 4/4 beat with snare on two and four and it ultimately ends up syncopating the riff?


dude, yes


please say you know what it is, don't be an elitist doucher
~don't finkdinkle when ur supposed to be dimpdickin~
#15
I really don't. But upon hearing it, it does sound familiar. Maybe a Slipknot song? I know Mike Portnoy does that all the time, but I really don't think it's a DT song.

You, good sir, have not gone over to your friends house after a hard night of drinking to find 2 dudes passed out in the same room both holding their own flaccid cocks in hand, passed out, with porn on the tv.
#16
Oh lol

from the way you were posting i thought you were going to be like "every metal song ever" or something

and actually i think the snare is on 1 and 3
~don't finkdinkle when ur supposed to be dimpdickin~
#18
Quote by Primus2112
Oh lol

from the way you were posting i thought you were going to be like "every metal song ever" or something

and actually i think the snare is on 1 and 3



Haha. Nope. Genuinely trying to help. Now it's bugging me that I don't know what song it is.

It doesn't really make sense that the snare would be on 1 and 3, but that's just me.

You, good sir, have not gone over to your friends house after a hard night of drinking to find 2 dudes passed out in the same room both holding their own flaccid cocks in hand, passed out, with porn on the tv.
#19
Quote by Geebz
Looks like the intro for Stairway... >_>

How the fudge do you play stairway?


e----------5--7--------7-8--------8--2--------2-0---------0-
b-------5--------5----------5-----------3---------1-----1---
g----5--------------5----------5-----------2---------2------
d-7-----------6----------5-----------4----------------------
a-----------------------------------------------------------
e-----------------------------------------------------------

e-------------------------------------------5--7----------
b-1--------0--1-1-------------------------5--------5------
g----2-----0--2-2----------------------5--------------5---
d----------------------------------7-----------6----------
a----------2--0-0----0-6(7)(8)-7-0------------------------
e---------------------------------------------------------

e-7-8-------8--2---------2-0-----------0--------------------
b------5----------3-----------1-----1-----1--------0--1-1---
g---------5----------2-----------2-----------2-----0--2-2---
d---5----------4--------------------------------------------
a--------------------------------------------------2--0-0---
e-----------------------------------------------------------

e----------------------0--2--------2-0-----------
b-------------------0--------3----------1--------
g----------------0--------------2----------2-----
d----------2--0-----------0----------------------
a-0--2--3----------------------------------------
e------------------------------------------------
#20
If you do find out what song it is, please post your findings. I would like to rock out to this.

You, good sir, have not gone over to your friends house after a hard night of drinking to find 2 dudes passed out in the same room both holding their own flaccid cocks in hand, passed out, with porn on the tv.
#21
Quote by Twist of fate
How the fudge do you play stairway?


e----------5--7--------7-8--------8--2--------2-0---------0-
b-------5--------5----------5-----------3---------1-----1---
g----5--------------5----------5-----------2---------2------
d-7-----------6----------5-----------4----------------------
a-----------------------------------------------------------
e-----------------------------------------------------------

e-------------------------------------------5--7----------
b-1--------0--1-1-------------------------5--------5------
g----2-----0--2-2----------------------5--------------5---
d----------------------------------7-----------6----------
a----------2--0-0----0-6(7)(8)-7-0------------------------
e---------------------------------------------------------

e-7-8-------8--2---------2-0-----------0--------------------
b------5----------3-----------1-----1-----1--------0--1-1---
g---------5----------2-----------2-----------2-----0--2-2---
d---5----------4--------------------------------------------
a--------------------------------------------------2--0-0---
e-----------------------------------------------------------

e----------------------0--2--------2-0-----------
b-------------------0--------3----------1--------
g----------------0--------------2----------2-----
d----------2--0-----------0----------------------
a-0--2--3----------------------------------------
e------------------------------------------------

lol
..................................................
COOLEST GUITAR EVER!
Peavey: Vypyr 15W
ESP: H-1001
Guitar Rig 5 with Kontrol
Eleven rack
Fender blues Jr III
Gibson Les Paul Studio Pro
Daredevil 77 IC Op-Amp Fuzz
#22
Quote by Twist of fate
How the fudge do you play stairway?

Tssch, not like that.
#23
Quote by RisingForce1990
If you do find out what song it is, please post your findings. I would like to rock out to this.


will do
~don't finkdinkle when ur supposed to be dimpdickin~
#26
Quote by blue_strat
Try playing it to Shazaam or SoundHound if you have a smartphone.

I do, brb

Edit: recording is too shitty

I write songs.
YOU SHOULD LISTEN TO THEM
Currently Requiring Crits:
none
Last edited by WyvernOmega at Apr 26, 2011,
#27
Quote by WyvernOmega
I do, brb

Edit: recording is too shitty


~don't finkdinkle when ur supposed to be dimpdickin~
#29
Quote by Primus2112
OH MY GOD I FUCKING FOUND IT

http://www.youtube.com/watch?v=YEbNmK-rNuQ

1:40


**** yeah man!

You, good sir, have not gone over to your friends house after a hard night of drinking to find 2 dudes passed out in the same room both holding their own flaccid cocks in hand, passed out, with porn on the tv.
#30
haha wow that didn't sound familiar to me at all, and I was just listening to that song
Listen to jazz, it'll make you a better guitar player.


Whatever you do, stay creative
#31
Awww, I was actually gonna say it sounds Queensy too
dirtbag ballet by the bins down the alley
as i walk through the chalet of the shadow of death
everything that you've come to expect


#32
It wasn't at all what I was expecting. I am now disappoint.

Would have been way better if they changed up the drums the way I imagined they would have been.

You, good sir, have not gone over to your friends house after a hard night of drinking to find 2 dudes passed out in the same room both holding their own flaccid cocks in hand, passed out, with porn on the tv.