#2
after what you got, i have 5x555x and x5756x followed by a single hit of 5 on the low E string. as for the chorus i have no idea. i think the first chord's a c major chord
#4
I think Chorus is within regular C F E2 Am G7...Starting from 2nd verse, it's

x35453 x79787 x8109108 x810898 x79787 5x555x x5756x

and then 02010x (Hitting B on A string is optional...)

2nd part of Verse goes like this:

5x555x x35453 x8109108 x810898 x79787

*right after x5756x is this:
E l-3---5-------------------l
A l---------2--3-----3------l
D l---------------5----------l
G l-----------------4--------l
B l----------------------5~-l
e l---------------------------l
Last edited by xSuperChocox at Aug 17, 2011,
#5
I have a few questions about some of the chords posted.......
x8109108 x810898 these two
ummm how is it there are 8 notes in the chord (1st one, and 7 notes in the 2nd chord)..........if there are only 6 strings? O_O
and how would you even reach from the 9th fret to the 1st O_O seems kind of physically impossible
please explain what's happening with those two chords xD
#7
Quote by xSuperChocox
I think Chorus is within regular C F E2 Am G7...Starting from 2nd verse, it's

x35453 x79787 x8109108 x810898 x79787 5x555x x5756x

and then 02010x (Hitting B on A string is optional...)

2nd part of Verse goes like this:

5x555x x35453 x8109108 x810898 x79787

*right after x5756x is this:
E l-3---5-------------------l
A l---------2--3-----3------l
D l---------------5----------l
G l-----------------4--------l
B l----------------------5~-l
e l---------------------------l


After the first x5756? or is there one after the x79787 in the second part of verse two? And is it really an E2? Because the E2 sounds really weird. I play it as a 022102.
#8
This is the studio version:


Chords for verse:

Cmaj7:x3545x
Em7:x7978x
Fmaj7:x 8 10 9 10 x
Fm7:x 8 10 8 9 x
Am7:x0x010
Dm7:xx0211
E7:0x010x


Intro:
e|----------------------------------------------------------------------------------------|
B|-----5------5--------8------8-------10--------10---------9---------9--------------|
G|-----4------4--------7------7-------9---------9-----------8---------8--------------|
D|-----5------5--------9------9-------10-------10---------10--------10-------------|
A|--3------3-------7-------7-------8--------8-----------8----------8-----------------|
E|----------------------------------------------------------------------------------------|


e|------------------------0-----0----------1--------1------------------------|
B|------8------8---------1-----1----------1--------1------------------------|
G|------7------7---------0-----0----------2--------2------------------------|
D|------9------9---------------------0---------0----------------------------|
A|---7------7--------0------0------------------------------------------------|
E|------------------------------------------------------------3----------------|


verse:
Cmaj7 Em7 Fmaj7 Fm7 Em7 Am7 Dm7
e|---------------------------|
B|--------------------------|
G|--------------------------|
D|--------------------------|
A|--------0---2------------|
E|----3--------------------|


Cmaj7 Em7 Fmaj7 Fm7 Em7 Am7 Dm7 E7

Am7 Cmaj7 Fmaj7 Fm7 Em7
e|------------------------------0-----------|
B|------------------------------5-----------|
G|------------------------4----4-----------|
D|--------------------5--------5-----------|
A|--------0---2---3-----------3------------|
E|----3--------------------------------------|

Chords for the chorus and bridge:

C:x32010
Em:022000
Fmaj7:xx3210
Fm:xx3100
Am7:x02010
Dm7:xx0211
E7:020100
G:320033
Cmaj7:x32000 (or x32033)


Chorus:
C Em Fmaj7 Fm Em Am7 Dm7 E7

Am7 C Fmaj7 Fm Em G Cmaj7


Bridge:

Am7 Em Fmaj7 Fm (2)
Last edited by crmrz at Oct 4, 2011,
#9
OMG thankyou so much But how about the last part of the last verse where it's like "As I finish this song, I have one request. For you, to be in my arms." Thank you so much!
#10
the last part: (from the video)

Am7 C Fmaj7 Fm Em
e|-----------------------------0--------------|
B|-----------------------------5--------------|
G|-----------------------4----4---------------|
D|--------------------5-------5---------------|
A|--------0---2---3----------3---------------|
E|----3----------------------------------------|
Last edited by crmrz at Oct 5, 2011,