#1
Can somebody tab rhythm guitar of Mion's Hill or Black Fire by Sabbat?I tried but I can tab only riffs,not the whole songs...if somebody can tab these songs please help
#2
I think this is the intro of black fire
---------------------------------------------
---------------------------------------------
-----------------------5-4-----------------------
-2--2--5/4---3------5-4--2--2--5/4---3--3--5--
-2--2--5/4-x-3-----3-2--2--2--5/4-x-3--3--5--
-0--0--3/2-x-1--xx------0--0--3/2-x-1--1--3--
#3
Maybe this is the second riff but I'm not sure for the 1fret on 5th string
----------------------------------
----------------------------------
----------------------------------
----------------------------------
--2-2-0/2-1--3-2-2--3/2/0---
--0-0-----3------0-0-----------3--2
#4
And the riff with vocals is this I think...
Part I
-------------------------------------------
-------------------------------------------
-------------------------------------------
-------------------------------------------
2-------2-------2-------2----------------
000000000000000000000000-----

Part II

-------------------------------------------
-------------------------------------------
-------------------------------------------
-------------------------------------------
5-------5-------5-------5----------------
333333333333333333333333-----