#1
Song

Need you help for this.
The Song contains only 2 Riffs.
I already started with the first.


Riff 1 should be like that:

|-2-------3--------2--------------5------3-----2-----|
|----0-------0--------0--------0-----0-----0-----0--|
|-------0-------0--------------------------------------|
|-------------------------------------------------------|
|-------------------------------------------------------|
|-0-------------------------0--------------------------|


|------------------------------------------------------|
|--7------7--8------7-----5------------5------5----|
|------0-----------------------0-----0------0--------|
|----------------------------------0-------------------|
|--5------------------------3-------------------------|
|------------------------------------------------------|


Riff 2 starts at 1:14.

|-5-----5------------5--------8-----8--7--------5-----|
|----5------5-----5-----5--------5--------5--------5--|
|---------------5-------------------------------5--------|
|---------------------------------------------------------|
|-0----------------------------0-------------------------|
|---------------------------------------------------------|

That's all i got from the second one.
But i'm not sure about this.

Riff 2 is played again slightly changed at 2:43

Hopefully someone may help me.
#2
First, thank you for posting this beautiful song!
In return I'll try to help you tabbing it.

So, Riff 1 seems to be almost right that way.
But to me it makes more sense this way:

|-2-------3--------2--------------5------3-----2-----|
|----0-------0--------0--------0-----0-----0-----0--|
|-------0-------0--------------------------------------|
|-------------------------------------------------------|
|-------------------------------------------------------|
|-0-------------------------0--------------------------|


|-2------2--3------2------0------------0------0-----|
|-----0----------------0-------0-----0------0-----0--|
|-----------------------------------0-------------------|
|-0-----------------------------------------------------|
|----------------------------3--------------------------|
|--------------------------------------------------------|


Do you think it's better this way?
I'm working on Riff 2 now.
#3
Riff 2
(slide down into 2 at "7/"
|-5-----5------------5-------7-----7--8--------7/---|
|----5------5-----5-----5-------5--------5-----------|
|---------------5------------------------------5-------|
|-------------------------------------------------------|
|-0---------------------------0------------------------|
|-------------------------------------------------------|


|-2-----0------------0-----2----------2/5-----------|
|-----0----0-----0------0---------0---------8/7----|
|--------------0----------------0---------------------|
|------------------------------------------------------|
|------------------------------------------------------|
|-0---------------------------------------------------|


|-2h3--0--------0-2-----2h3--0--2--3---|
|-----------0----------------------------------|
|--------------0-------------------------------|
|-0--------------------------------------------|
|---------------------------3------------------|
|-----------------------------------------------|


|-2h3--0---------0-------------0------2-----|
|-----------0---------0---4--------------------|
|--------------0-------------------------------|
|-----------------------------------------------|
|-2------------------------2-------------------|
|-----------------------------------------------|
#4
Riff 2 at 2:43

|-5-----5------5-----5-------8-----8--7--------5----|
|----5------5-----5-----5-------5--------5-----------|
|-----------------------------------------------5--------|
|--------------------------------------------------------|
|-0----------------------------0------------------------|
|--------------------------------------------------------|


|-2h3---0------------0-----5---------5---------3------|
|------------0-----0------0-----0---------0---------0--|
|---------------0-------------------0----------0---------|
|----------------------------------------------------------|
|----------------------------------------------------------|
|-0-------------------------------------------------------|


|-2h3--0--------0-2-----2h3--0----0--2---|
|------------0------------------------0----------|
|-------------------------------------------------|
|-0----------------------------------------------|
|----------------------------3-------------------|
|-------------------------------------------------|

(flageolet/harmonic over 12 fret)
|-2h3--0------------12-----------------|
|-----------0------------------------------|
|--------------0--------------------------|
|------------------------------------------|
|------------------------------------------|
|-0---------------------------------------|
#5
Quote by tcrono

Do you think it's better this way?


Absolutely!

Good job, that was really fast. Sounds great to me.
Thanks a lot.