#1
It's a beautiful instrumental song composed for Piano, but many have translated to guitar tab and I've seen it on youtube and it sounds great on guitar. I just wish I could get my hands on a tab for it.
Cheers
#3
I started translating it last night from piano sheet music. I'll try and get it up, but it won't be
for a while
#4
I got this far with it, before I realised that a] it would be about a million times easier to transpose it to Em, and b] this is a pretty old post!



e---------------------------------------
B-1-----------------------------------
G-1--------6------5------8------------
D-3--------6------6------8------------
A----------4-------------6-----t10--
E-1---------------4--------------------

e-----------------------------------------------------------------------------6--4---4---4---6--4---4---4---
B-1--------------4------------------11--9---9---9--11--9---9---9----------------------------------------
G-1------6------5------8----------10-------------------------------------6----------------6----------------
D-3------6------6------8-----------------------------10------------------------------------6----------------
A---------4--------------6----------8-----------------8--------------------4---------------------------------
E-1--------------4---------------------------------------------------------------------------------------------



if anyone is still interested I'll try to finish it...
Last edited by willguitarist at Jul 4, 2011,
#6
Quote by JamesWebster
It's a beautiful instrumental song composed for Piano, but many have translated to guitar chords /tab and I've seen it on youtube and it sounds great on guitar. I just wish I could get my hands on a tab for it.
Cheers


All of us here would appreciate if someone would finish this . I hope I do know how so that I could finish this.
Last edited by ndrewoods at Jul 31, 2011,