#2
solo:

e----------0-0------------------------------------------------------0-0--|
b------3-3-----3--1-1-0-0--------3-3-1-1-0-0----3-3-1-1-0-0--------3----3|
g--0-0---------------------2-2-0--------------2--------------2-0-0-------|
d------------------------------------------------------------------------|
a------------------------------------------------------------------------|
E------------------------------------------------------------------------|

e---------------------------------|
b-1-1-0-0-------------------------|
g---------2-2-0-------------------|
d---------------------------------|
a---------------------------------|
E---------------------------------|
#3
i was thinking the riff thats played over the chorus chords, its higher on the fretboard and starts off with a bend

but thanks anyways, great song