#1
So, about a half hour ago I started trying to learn Disturbed's new song "3" by ear. I'm horrible at this. I've tried with other songs before but failed miserably everytime But I'm determined to make it with this one. Anyway, I think I have the main riff down so far... kind of. If anybody has some time to waste, can you try playing it and telling me what you think of it compared to the real song. I think it sounds kind of close...

Here's the actual song http://www.youtube.com/watch?v=jgZebWi3J_8 and here's what I have for that first riff (drop c tuning by the way)
D-----------------------------------------
A-----------------------------------------
F-----------------------------------------
C----------------------------------------
G -------3-5-------5-6-------5-6-7---
C 0-0-0----0-0-0-----0-0-0----------

D----------------------------------------
A----------------------------------------
F----------------------------------------
C----------------------------------------
G -------3-5--------5-----5------3-3-
C 0-0-0-----0-0-0---0-0---0-0------

D----------------------------------------------------------
A----------------------------------------------------------
F----------------------------------------------------------
C---------------------------------------- 7-7-7-5-5-5-8-
G--------3-5--------5-6-------5-6-7--5-5-5-3-3-3-6-
C 0-0-0-----0-0-0-----0-0-0--------------------------

I know it's not perfect, but I think it sounds kind of right. Thanks in advance
Last edited by Adisturbedone at May 4, 2011,