#1
This is something I made playing around on blues scale. Note: Im playing guitar just a year, and Im new to this kidn of work, but I think its good for start


|-----------------------------------------------------------------------------------||
|--------------------------------------------------------------------------12----12-||
|-------15-14-12h14-------15-14-12h14-------15-14-12h14-------15-14-12h14-----14----||
|-14-14-------------14-14-------------14-14-------------14-14-----------------------|| 
|-----------------------------------------------------------------------------------||
|-----------------------------------------------------------------------------------||...


|-------------------------------------15-14-12-15-14-12-15-14-12-15-14-12-||
|-15-14-12-15-14-12-15-14-12-15-14-12-------------------------------------||
|-------------------------------------------------------------------------|| x4 ...
|-------------------------------------------------------------------------||
|-------------------------------------------------------------------------||
|-------------------------------------------------------------------------||


On 4th

|...-15-14-12-------------------------------------------------------------||
|-------------15-12-------------------------------------------------------||
|-------------------15-14-12-14pb-14-12-----------------------------------||
|---------------------------------------14-12h14--------------------------||
|-------------------------------------------------------------------------||
|-------------------------------------------------------------------------||
#2
Time signature and tempo would be helpful.
Bands I've seen live:

Def Leppard
Journey
Tool
Testament
Megadeth
Slayer
Mastodon
Deftones
Alice in Chains
Foo Fighters
Rodrigo y Gabriela
#3
Quote by British Josh
Time signature and tempo would be helpful.


Not sure, I play it fast. Dont understand that stuff
#4
Quote by frodomir
Not sure, I play it fast. Dont understand that stuff


...........

http://www.ultimate-guitar.com/lessons/for_beginners/learning_music_theory_the_beginning.html

Get working.
Quote by LukeElliff
IF you want faster stumming then loosen your strings, that will force you into using more strength


Quote by pantallica95
i dont know about the polarity and ****, but my regular ones just wont go in the hole without a lot of force.