#2
here's the intro, don't feel like tabbing the whole thing
e---------------------
b--------8--------3--
g-----6--------1-----
d--7--------2-------
a--------------------
e--------------------

repeat it and put in a rythm and place the accent on the high note

e------------------------------------------------
b-----------------------------------------------------------
g--2/12~-12hb(13)r(12)----11hb(12)r(11)b(12)--------
d---------------------------------------------------
a----------------------------------------------------
e-------------------------------------------------------
#3
Quote by toine
here's the intro, don't feel like tabbing the whole thing
e---------------------
b--------8--------3--
g-----6--------1-----
d--7--------2-------
a--------------------
e--------------------

repeat it and put in a rythm and place the accent on the high note

e------------------------------------------------
b-----------------------------------------------------------
g--2/12~-12hb(13)r(12)----11hb(12)r(11)b(12)--------
d---------------------------------------------------
a----------------------------------------------------
e-------------------------------------------------------



did you already know this song or just work it out the now?

Ibanez S670FM
Ibanez Masa SX60
Roland Cube 60
CryBaby GCB 95
Ibanez GSR180 Bass



♫ ♫ ♫ ♫ ♫ ♫
#4
Quote by MoshMaster
did you already know this song or just work it out the now?

never heard the song.
Actually from the first note i heard i immediatly played the correct one on my guitar.

You can play along in e minor for most of the song