#2
Ok, so me and my friend (mostly) worked on it for the better part of afternoon, and here's what we've come up with so far, if you can improve it plz do, add suggestions and whatever

E--------------------------------------
B----1-3--3--3-1-4-3--1-----------
G--0---3--3----------3----3---------
D--------------------------------------
A--------------------------------------
E--------------------------------------

E--------------------------------------
B--------------1----1-3--------------
G--0-2-3--3-2--3---3---------------
D--------------------------------------
A--------------------------------------
E--------------------------------------

E----------------1---------------------
B----1-3--3--3---4-3--1------------
G--0---3--3---------3-----3---------
D--------------------------------------
A--------------------------------------
E--------------------------------------

E--------------------------------------
B--------------1----------------------
G--0-2-3--3-2--3-2-0--------------
D----------------------0--------------
A--------------------------------------
E--------------------------------------

E------------1------------------------
B--3--3--3----4-3--1---------------
G--3--3----------3----3-------------
D--------------------------------------
A--------------------------------------
E--------------------------------------

E------------1------------------------
B--3--3--3----4-3-------------------
G--3--3----------3-------------------
D--------------------------------------
A--------------------------------------
E--------------------------------------

E--------------------------------------
B--1--1------1----1--3-4-----------
G--3--3---3----3-2------------------
D--------------------------------------
A--------------------------------------
E--------------------------------------

Tabs came out a bit wierd but you get the general picture