#1
I feel quite foolish for asking, because I just can not figure out theese tabs!

I was wondering if anyone would be kind to help me? ) I need to perform this a week from today, which it shouldn't be hard to learn, however I can't figure out what chords or tabs are in this song XP

Can someone help Pretty please? )

Link to the songgg~:

http://youtu.be/zFz_wKS0j2I
#2
I havn't got much time atm but from what i can hear:

Intro
|-0----0----0---|
|-0----0----0---|
|-8----11---9---|
|-8----11---9---|
|-6----9-----7---|
|-----------------|

Verse 1
|-------------------------|
|-------------------------|
|--9----------------------|
|--9----9----11-----7--|
|--7----9----11-----7--|
|--------7----9------5--|

I'll see if i can do some more later....
#3
No arpeggio, only chords


Intro: (strum)

e|-0-----0-----0----------|
B|-0-----0-----0----------|
G|-8-----11---9----------| 2x
D|-6-----9-----7----------|
A|--------------------------|
E|--------------------------|


Chorus: (strum)

e|--------------------------------|
B|--------------------------------|
G|-9----9----9------------------| 2x
D|--9---9----9-----7------------|
A|--7----x----x-----7------------|
E|-------7----9-----5------------|

intro..

Verse: (strum)

e|--0-----0------0-----------|
B|--0-----0------0-----------|
G|--2-----4------8-----------| 6x
D|--2-----4------6-----------|
A|--0-----2------4-----------|
E|-----------------------------|

chorus..

Arpeggio chords:

e|---0------0---------|
B|---0------0---------|
G|---8------2---------|4x
D|---6------2---------|
A|---4------0---------|
E|---------------------|


e|--0------0------0-----0-------------|
B|--0------0------0-----0-------------|
G|--8------2------1-----4-------------|x times til...
D|--6------2------2-----4-------------|
A|--4------0------2-----2-------------|
E|-----------------0--------------------|

(chorus chords)
..Cause we could be anything just be my everything...