#1
Hi all, I haven't picked up my guitar in a loong time and I'm trying to get back into it with some easy tabs, now this is probs gonna seem like a daft question, however I'm not sure what this means (the bits with the h, like 1h3)

e|-------0-----3-----0--------------------------|
B|-----1-----1-----1---------1-----1h3-----1----|
G|---2-----2-----2---------2-----2-------2------|
D|-3---------------------2-----2-------2--------|
A|---------------------0------------------------|
E|----------------------------------------------|

e|-------1-----------1---------------------------------|
B|-----1-----1-----1-----1-------0-----0h1-----1-----0-|
G|---2-----2-----2-----2-------0-----0-------0-----0---|
D|-3-----------3-------------0-----0-------0-----0-----|
A|-----------------------------------------------------|
E|-------------------------3---------------------------|

- Eleanor x
#2
A 'h' between two "notes" in a tablature most often stands for "hammer-on". Similiary, a 'p' stands for "pull-off". The 'h' and 'p' symbols are alternatively sometimes replaced with a '^' symbol, for both cases. If you don't know what these techniques are, be sure to check them out with google or youtube - they are very common, almost essential techniques in guitar playing. Sorry, I'm just too lazy to explain what they are right now, lol.
Gear:

Guitars: Ibanez SV5470F, Ibanez Xpt700, Fender MIM Standard Stratocaster ('04-'05), Jackson Ps-2
Ashton AG200,
Amps: ENGL E530, Bugera 6262-212,
FX: TC Electronics G-major 2, Behringer EQ700, Morley Volume / Wah
Last edited by The^Unforgiven at May 31, 2011,
#4
Ahh I thought that's what it was when I listened to the song, just couldn't remember the name of it! Thanks for the reply