#1
Working on a new song, and looking for some input. anyone? anything at all. good or bad.
I also need a name for it. any thoughts?
e.------------------------------------------------------------------
B.------------------------------------------------------------------
G-------0----4----------------0-----4-----------------4-5-4----
D.--55----5----5--3---55------5-------5h3h0----------------
A.----------------------------------------------------5-----------
E.-----------------------------------------------------------------

e.---------------------------------------------------5*---
B.---------------------------------------------------------
G.---------------------------------------------------------
D.---55----3----------------------------------------------
A.---------------5----3----------------------------5*----
E.-------------------------5----3----0---3----0*-------

<Not the whole song just the intro.>

*=Let ring
h=Hammer on

Played on acoustic
All played in a row just didint fit in one line.
#2
It's hard to tell the rhythm of something through just plain tab unless you have audio to back it up. Try getting Guitar Pro 5, put it in there, write a little more, and then come back
#3
hey yes i agree with tarbosh unless you write very neat tight tablutures with tempos and time signitures then you need to get guitar pro for anyone to take you seriously on here once you get that im sure some people will be able to help you! also just as a point of intrest guitar pro costs 15 dollars its good and worth it but i think youd be better of downloading tuxguitar just google it and follow the links its free and just as good without the RSE
#4
oh yeah i guess so huh? heh heh well i guess its time to break open the piggy bank.