whentusconbled
Registered User
Join date: Mar 2011
122 IQ
#1
I heard this song today and for some reason I'm lovin' it. Its called "A Constant Reminder" by Walter Rodriguez. Here is a Youtube link: http://www.youtube.com/watch?v=ig3_...feature=related

Post it on here, shoot me an email (jordanchristophercarter@yahoo.com), or whatever. It's a catchy tune and I would really appreciate anyone who gets ii, even if you can just pick out the chords for me.

Thanks,
-Twig
nightowl_33
Registered User
Join date: Sep 2011
10 IQ
#3
Tabs to "a constant reminder" by singer songwriter Walter Rodriguez

TUNING: tune your low E string to drop D tuning!!
For picking rhythm, listen to the tune:

intro main guitar lick:
e--------------------------------------------------------------------------------------------0------
b-----0--------------0------------------------------------------------------------------3-------3--
g---------5----5-------5----5-------------5-------------4-5-4---------------------5------------5
d------------5----5-------------5----5-------5------0--------------0-----0-----0-----------------
a-----0----------------------------3----3-----------------------------------------------------------
d-----------------------------3--------------------5---------------------5-----5---------5--5-----

verse chords:

e--------------------------------------------------
b---------------0---------------0--------------0--
g---------------5---------------5--------------4--
d---------------5---------------5--------------0--
a----0----0--------------------3------------------
d---------------------3----3--------5----5-------

Chorus chords:

e----------------------8----------------------------3--------------------------3-------------------3------
b-----------8---10---10---10-----------3---5---5---5--3---------3---5---5---5-------3--5--5--5-3
g-----------7---9-----------9------------0---0--------0--0---------0---0--------0-------0--0-----5-0
d-----------------------------------------------------------------------------------------------------------
a----0-----------------------------------------------------------------------------------------------------
d-------------------------------------3--------------------------5------------------------5---------------