#1
How would you finger this sweeping pattern. It's part of the leper messiah solo if that helps. I put how I finger it above the notes, so I would really appreciate it if you guys could tell me if it's wrong or not.

4 1 3 2 3 1…
e|--19p15------15-19p15------15---
B|-------17--17---------17--17-----
G|---------16--------------16-------
A|-----------------------------------
E|-----------------------------------
#2
Pretty much the same as you would.
[Gibson Explorer]
[Ibanez RG1XXV]
[Line6 PodHD]
[ENGL Retro Tube 100]
[Dunlop CryBaby]
#4
Pointer on the 15th, middle on the 16th, ring on the 17th and pinky on the 19th is how I would do it personally.
#5
You could use your pointer for the 15th and 16th fret, middle for the 17th and pinky for the 19th. I occasionally do that. However, the way you described is fine too and deemed 'easier' by most.
I do not want to have a signature anymore.
#6
I would finger it like this:

e|-19p15----------15-19-
b|-------17----17-------
g|----------16----------
d|----------------------
a|----------------------
e|----------------------

F|-4--1--2--1--2--1--4


That way it's seen as a fragment of this arpeggio shape:

e|-19p15----------------------15-19-
b|-------17----------------17-------
g|----------16----------16----------
d|-------------17----17-------------
a|----------------19----------------
e|----------------------------------

F|-4--1--2--1--2--4--2--1--2--1--4--


It makes it considerably easier to continue the sweep down the shape if you should so wish.
R.I.P. My Signature. Lost to us in the great Signature Massacre of 2014.

Quote by Master Foo
“A man who mistakes secrets for knowledge is like a man who, seeking light, hugs a candle so closely that he smothers it and burns his hand.”


Album.
Legion.