#1
My challenge to ya'll, is to take this song I wrote, and record it better than I can, or at least to show and compare your recorded tone as compared to mine. I'm sure most of ya'll can record it better than I can. But the point of this is to give ya'll something to do, and to show off your recording skills, while learning a new song.

I don't know if this idea will work, but it's worth a shot. So, I'll post the tabs, the original drum track, the MIDI of the drum track, and two different versions of the song so you know how to play it and what to compare it to.

When your done, post a link to your MP3 in this thread, and discuss.

Kara's Inspiration

Tempo 125BPM Beat 6/8

Tuning Drop D(DADGBe)

Verse 1
e|---------------------------------------------------
B|----------5----------------------------------------
G|---6-----6-6----4-----6--7p6-6--(6)\(2)---2-----4--
D|--7-7---7---7--6-6---7-7------7----------4-4---2-2-
A|-4---4-4------4---4-0---0---0--0--------0---0-2---2
D|4-----4------4-----0-------------------0-----2-----

Verse 2
e|-----------------------------------------------------------------
B|-----------------------------------------------------------------
G|---6-------6-----6-------6-------6--7p6-6--(6)\(2)---2-----4-----
D|--7-7-------7---7-7-------7-----7-7------7----------4-4---2-2----
A|-4---45p4----4-4---45p4----4---0---0---0--0--------0---0-2---2---
D|4---------0---4---------0-----0-------------------0-----2--------

Chours 1
e|---0-0---0-0----0-0---0-0---0-0---0-0---0-0---0-0-
B|---0-0---0-0----5-5---5-5---3-3---3-3---5-5---5-5-
G|-----6-----6------4-----4---2-2---2-2-----4-----4-
D|--4-----4------2-----2-----0-----0-----2-----2----
A|-4-----4------2-----2-----0-----0-----2-----2-----
D|4---4-4---4--2---2-2---2-0---0-0---0-2---2-2---2--


Chours 2
e|---0-0/---0-0----0-0---0-0----0-0/---0-0----0\---0
B|---0-0/---0-0----3-3---3-3----0-0/---0-0---12\---3
G|-----6/-----9----2-2---2-2------6/-----9---11\---2
D|--4---/--7---\--2-----2------4---/--7-----9--\--2-
A|-4----/-7----\-2-----2------4----/-7-----9---\-2--
D|4---4-/7---7-\2---2-2---2--4---4-/7---7-9----\2---



Order

Verse 1(x2)
Verse 2(x2)
Chours 1(x2)
Verse 1(x2
Verse 2(x2)
Chours 1(x2)
Chours 2(x2)

Drum MP3: http://dl.dropbox.com/u/8920099/Kara%27s%20Inspration%20drum%20track%28less%20volume%29.wav

Drums MIDI: http://dl.dropbox.com/u/8920099/Kara%27s%20MIDI%20drums.mid

Original track: http://profile.ultimate-guitar.com/ethan_hanus/music/all/play941245

SM-58 with a bit of lead: http://profile.ultimate-guitar.com/ethan_hanus/music/all/play999857
#2
Give me a day or two to mess around. I'll have something for ya
Derpy Derp Derp Herp Derp
#3
if i didn't suck at guitar and wasn't to lazy to practice before recording i would do it...

i wish you woulda just provided a dry track :'(
Last edited by FireHawk at Jun 1, 2011,
#4
Are we allowed to add tracks to the song or use different instruments? I dont know if I actually would, but could you have an acoustic in there? Maybe some keys playing a different part?

I like the idea. I'll give it a go if I have time in the next few days.
#5
Quote by sandyman323
Are we allowed to add tracks to the song or use different instruments? I dont know if I actually would, but could you have an acoustic in there? Maybe some keys playing a different part?

I like the idea. I'll give it a go if I have time in the next few days.


You can add whatever you want to it, I just gave the tabs so ya'll would know the key and progression and how it's supposed to go.