#1
OK! I have figured out how to play this song .. but there are some "power-chord" parts that I can't figure out ... They are easy to play, but I'm new when it comes to playing by ear. Please write the notes/chords or tab the parts I couldn't do;

The song : http://www.youtube.com/watch?v=reiDk2FI8gc

The parts I couldn't "fully" figure out:

0:43 - 1:43
1:44 - 2:15 (Well the first part of the chorus I could.. but not the rest )



Please help, this is a piece of cake for you guys here on UG!

Tuning Drop C

Intro
|---------------------------------------------------------------------------|
|---------------------------------------------------------------------------|
|---------------------------------------------------------------------------|
|-0----12--6-5-3-6-5-3-0----------------------------------------------------|
|-0----12--6-5-3-6-5-3-0----------------------------------------------------|
|-0----12--6-5-3-6-5-3-0----------------------------------------------------|
Repeate a few times

|---------------------------------------------------------------------------|
|---------------------------------------------------------------------------|
|---------------------------------------------------------------------------|
|-0-x--12x--6-5-3---0x-12x-6-5-3--0x-12x-6-5-3--5-6-6-6-5--3----------------|
|-0-x--12x--6-5-3---0x-12x-6-5-3--0x-12x-6-5-3--5-6-6-6-5--3----------------|
|-0-x--12x--6-5-3---0x-12x-6-5-3--0x-12x-6-5-3--5-6-6-6-5--3----------------|


Chorus
e|-------------------------|
B|-------------------------|
G|-------------------------|
D|0x--0-0x--0x--0x---0-0x--|
A|0x--0-0x--0x--0x---0-0x--|
E|0x--0-0x--0x--0x---0-0x--|

Chorus part two
e|-----------------------------|
B|-----------------------------|
G|-----------------------------|
D|-0-0--88-8-8---3--3---7-7-7--|
A|-0-0--88-8-8---3--3---7-7-7--|
E|-0-0--88-8-8---3--3---7-7-7--|
Last edited by Wihbi at Jun 2, 2011,