#1
Hey there,
So yeah this riff was present as a preset in one of the audio software I have and I really liked it and would really like to try and do a whole song around it. But that can only be done once I know what it really is. I tried to do it myself but I dont have complete knowledge about all the scales and stuff and I havent actually done this before so this is proving to be a bit difficult for me atm.. so if anyone can could please tab this for me and help me out.. that would be really appreciated!

its a 8 sec long riff
http://www.smamun.org/soundsz1/riff.MP3


Thanks,
#2
to me it sounds like this:

e---------3-----3--3-----1------
b---------1-----1--1-----1------
g----------------------------------
d----------------------------------
a--3--3-----3---------3----------
E----------------------------------

e---------1-----1--1-----0------
b---------1-----1--1-----1------
g----------------------------------
d----------------------------------
a--3--3-----3---------3----------
E----------------------------------

e---------0-----0--0-----1------
b---------1-----1--1-----1------
g----------------------------------
d----------------------------------
a--3--3-----3---------3----------
E----------------------------------

e---------1-----1--1-----3------
b---------1-----1--1-----1------
g----------------------------------
d----------------------------------
a--3--3-----3---------3----------
E----------------------------------