#1
I am the lead electric guitarist in a Christian Worship band and we have recently decided to do "Revelation Song." There is a small lead part that echoes throughout the first half of the song. It's only 3 notes, however I cannot find the third note no matter how hard I try.

Here is a video link the the recording we are basing our performance off of:

http://www.youtube.com/watch?v=dsiDukXIeVY

I am pretty confident that the first two notes are natural harmonics played at the 7th fret of the high e and B strings. Like so:

e|---------(7)---------------------------------------------------------------|
B|----------------(7)--------------------------------------------------------|
G|---------------------------------------------------------------------------|
D|---------------------------------------------------------------------------|
A|---------------------------------------------------------------------------|
E|---------------------------------------------------------------------------|

I have tried all other natural harmonics I can find and none of the work. They are either slightly too high or too low. I did find one harmonic that worked, however it's going to be near impossible to play it live.

e|---------(7)---------------------------------------------------------------|
B|----------------(7)--------------------------------------------------------|
G|--------------------------------8-(20)-----------------------------------|
D|---------------------------------------------------------------------------|
A|---------------------------------------------------------------------------|
E|---------------------------------------------------------------------------|

^the 8 (20) is a tapped harmonic, I wasn't sure how to write that out in a tab.

Help?
My Guitars
Squire Affinity Strat
Ibanez RG 350 DX
Fender Stratocaster MIM
Ibanez AEG20E
Tradition Guitars S2000F Pro
#2
actually it'd be more something like:
e--------------12i------------
b--------------------------------
g------------------------8(20)
d--------------------------------
a -9i-------------------------------
e---------------------------------

i: nat. harmonic
and would be quite playable actually
Schecter Hellraiser C-7
Ibanez VBT700
Ibanez SZ320
Yamaha Pacifica 112
Crafter D8/N
Peavey Transtube Bandit 112
Peavey Grind Bass 5 BXP NTB
Dunlop Dimebag Crybaby
Last edited by /-Vince-\ at Jun 6, 2011,