#1
Hey MR'er's, meet Taddy Porter

http://www.facebook.com/taddyportermusic#!/taddyportermusic?sk=app_2405167945

I have the album, plus have got to see them live twice. Really digging this band. I highly suggest listening to Shake Me or Big Enough on their FB page I linked if you haven't heard them yet.

Great Southerny tinged Rock. Thought I'd share this.


Enjoy.
Quote by Zeppelin71
Umm. . .uh. . .your mom touched sjones' dick. YOUR MOM TOUCHED OUR GUITARISTS GENITALS IN A CAMPER AT A BIKER FESTIVAL! truth.
Last edited by sjones at Jun 7, 2011,
#2
Taddy Porter "Shake Me"
8 x 2x
|----------------------------------------------------------------------------|
|----------------------------------------------------------------------------|
|---10------5--5-------------------8----5--5----------------------------------|
|---10------5--5---5---------------8----5--3---5------------------------------|
|---8-------3--3---5----------------6----3--3---5------------------------------|
|--------------------3------------------------------3------------------------------|


rhythm: guitar 1 (repeat)
|----------------------------------------------------------------------------|
|----------------------------------------------------------------------------|
|------------------8-8--55-6-55-6-5------------------------------------------|
|------------------6-6--33-3-33-3-3------------------------------------------|
|-4-4-6-4-4-4-6-4---------------------3-3/4-/-5------------------------------|
|-2-2-2-2-2-2-2-2---------------------1-1/2-/-3------------------------------|

rhythm: guitar 2
|----3-----3-----3-----6-----0---0-----9-8-9---------------------------------|
|----------------------------------6/8-------8-------------------------------|
|-/3---3/4---4/5---5/6---6/7---7---------------0-----------------------------|
|----------------------------------------------------------------------------|
|----------------------------------------------------------------------------|
|----------------------------------------------------------------------------|
rhythm: guitar 2
|----------------------------------------------------------------------------|
|-0---0----1---1---3---3----4---4----4--4------------------------------------|
|--0---0----0---0---3---3----3---3---3--3------------------------------------|
|---0---0----2---2---3---3----5---5--5--5------------------------------------|
|----------------------------------------------------------------------------|
|----------------------------------------------------------------------------|
#3
Saw Taddy Porter open up for AB. The singer was high as hell. The guitarist was really good though. That was about all I enjoyed from them.
Gear:
PRS Tremonti
ESP LTD Deluxe Viper 1000
Fender Telecaster
B.C. Rich Warlock
Epiphone Goth SG
Randall RD200
Line 6 Spider IV 150